PrimaNota.ru - самый крупный в мире бесплатный архив песенных текстов, аккордов, табулатур и нот


Daveyboyz - Heavy Metal Farmer - таба, видео

Регистрация Запомнить меня
Войти через:  Facebook Google Twitter Vk Yandex Mail.ru

Daveyboyz - Heavy Metal Farmer - таба, видео

Печатать
Просмотров: 133
Author/Artist: Heavy Metal Farmer

The song is in drop d tuning (D A D G B E)

As far as i know the tab i made is note for note. Have fun playing!

Leave me comments!


Introduction
--------------------------------------------------------------------|---------|
--------------------------------------------------------------------|---------|
-7---7---6---6---9---9---7---7---11---11---9---9---7---6---1---2----|---------|
---0---0---0---0---0---0---0---0----0----0---0---0---0---0---0---0--|---------|
--------------------------------------------------------------------|---------|
--------------------------------------------------------------------|---------|


--------------------------------------------------------------------|---------|
--------------------------------------------------------------------|---------|
-7---7---6---6---9---9---7---7---11---11---9---9---7---6---1---2----|---------|
---0---0---0---0---0---0---0---0----0----0---0---0---0---0---0---0--|---------|
--------------------------------------------------------------------|---------|
--------------------------------------------------------------------|---------|

MOOOOOOOOOOOOOOOOOOOOOO!
-----------------------------------------------------------------------------|
-----------------------------------------------------------------------------|
------2-1-----------------1-2----------------2-1---------------1-2-----------|
-0-----------7---6---0-----------8---7---0----------7---6---0--------8--7--0-|
-0-----------7---6---0-----------8---7---0----------7---6---0--------8--7--0-|
-0-----------7---6---0-----------8---7---0----------7---6---0--------8--7--0-|

Cows go moo when they poo!
-----------------------------------|------------------------------------------|
-----------------------------------|------------------------------------------|
------------1/2---------------1/2--|------------------------------------------|
-0-0---0-0---------0-0---0-0-------|------------------------------------------|
-0-0---0-0---------0-0---0-0-------|------------------------------------------|
-0-0---0-0---------0-0---0-0-------|------------------------------------------|

					     TRACTOR!
-----------------------------------------------------------|------------------|
-----------------------------------------------------------|------------------|
-----------------------------------------------------------|------------------|
-0---0-5-0-3----3-3-3---------0---0-3-0-5----5-5-5---------|------------------|
-0---0-5-0-3----3-3-3---------0---0-3-0-5----5-5-5---------|------------------|
-0---0-5-0-3----3-3-3-5h6p5\3-0---0-3-0-5----5-5-5-5h6p5\3-|------------------|

								I Milk my cows!
-----------------------------------------------------------|-----------------|
-----------------------------------------------------------|-----------------|
-----------------------------------------------------------|-----------------|
-0---0-5-0-3----3-3-3---------0---0-3-0-5----5-5-5---------|-0---------------|
-0---0-5-0-3----3-3-3---------0---0-3-0-5----5-5-5---------|-0---------------|
-0---0-5-0-3----3-3-3-5h6p5\3-0---0-3-0-5----5-5-5-5h6p5\3-|-0---------------|


-----------------------------------------------------------------|-----------|
-----------------------------------------------------------------|-----------|
-----------------------------------------------------------------|-----------|
-----------------------------------------------------------------|-----------|
-0-0---0-5-0-3-3---3-3-3-3-5-3-5-0-0---0-3-0-5-5---5-5-5-6-7-6-7-|-----------|
-0-0---0-5-0-3-3---3-3-3-3-5-3-5-0-0---0-3-0-5-5---5-5-5-6-7-6-7-|-----------|


-----------------------------------------------------------------|-----------|
-----------------------------------------------------------------|-----------|
-----------------------------------------------------------------|-----------|
---------------------------------------------------------x-x-x-x-|-----------|
-0-0---0-5-0-3-3---3-3-3-3-5-3-5-0-0---0-3-0-5-5---5-5---x-x-x-x-|-----------|
-0-0---0-5-0-3-3---3-3-3-3-5-3-5-0-0---0-3-0-5-5---5-5---x-x-x-x-|-----------|

					MOOOOOOOOOOOOO!
-----------------------------------------------------------------|-----------|
-----------------------------------------------------------------|-----------|
-----------------------------------------------------------------|-----------|
-----------------------------------------------------------------|-----------|
-0-0---0-5-0-3-3---3-3-3-3-5-3-5-0-0---0-3-0-5-5---5-5-5-6-7-6-7-|-----------|
-0-0---0-5-0-3-3---3-3-3-3-5-3-5-0-0---0-3-0-5-5---5-5-5-6-7-6-7-|-----------|


-----------------------------------------------------------------|-----------|
-----------------------------------------------------------------|-----------|
-----------------------------------------------------------------|-----------|
-5-5-5---55---555555557-7-7---77---777777775-5-5---55---55555555-|-----------|
-5-5-5---55---555555557-7-7---77---777777775-5-5---55---55555555-|-----------|
-5-5-5---55---555555557-7-7---77---777777775-5-5---55---55555555-|-----------|

				TRACTOR!
---------------------------|-------------------------------------------------|
---------------------------|-------------------------------------------------|
---------------------------|-------------------------------------------------|
-7-7-7---88---888101010\---|-------------------------------------------------|
-7-7-7---88---888101010\---|-------------------------------------------------|
-7-7-7---88---888101010\---|-------------------------------------------------|


-----------------------------------------------------------------------------|
-----------------------------------------------------------------------------|
-7---7---6---6---9---9---7---7---11---11---9---9---7---6---1---2-------------|
---0---0---0---0---0---0---0---0----0----0---0---0---0---0---0---0-----------|
-----------------------------------------------------------------------------|
-----------------------------------------------------------------------------|

				I am a farmer!			    (growl)
-------------------------------------------------------------------|---------|
-------------------------------------------------------------------|---------|
-7---7---6---6---9---9---7---7---11---11---9---9---7---6---1---2---|---------|
---0---0---0---0---0---0---0---0----0----0---0---0---0---0---0---0-|---------|
-------------------------------------------------------------------|---------|
-------------------------------------------------------------------|---------|

							TRACTOR!
-----------------------------------------------------------------------------|
-----------------------------------------------------------------------------|
-----2-1----------------1-2---------------2-1----------------1-2-------------|
-0---------7---6---0----------8---7---0----------7---6---0---------8---7---0-|
-0---------7---6---0----------8---7---0----------7---6---0---------8---7---0-|
-0---------7---6---0----------8---7---0----------7---6---0---------8---7---0-|
Добавлено: 14.07.2012
Вам также может быть интересно:
Другие материалы по этой песне:

Страница создана 09.07.2012
http://primanota.ru/daveyboyz/heavy-metal-farmer-chords.htm
Привет, Гость.
Предлагаем пройти революционный курс по гитаре.
Подарок от PrimaNota.Ru, забирай!