PrimaNota.ru - самый крупный в мире бесплатный архив песенных текстов, аккордов, табулатур и нот


Davey Graham - Ballad Of The Sad Young Men - таба, видео

Регистрация Запомнить меня
Войти через:  Facebook Google Twitter Vk Yandex Mail.ru

Davey Graham - Ballad Of The Sad Young Men - таба, видео

Печатать
Просмотров: 41
-------------------------------------------------------------------------------
Ballad of the Sad Young Men - Davy Graham
-------------------------------------------------------------------------------
Tabbed by: the dude5678

Tuning: EADGBe

e|-------2--2--2--2~----------2-2--2--2--------------------------------------|
B|---1-3-3b-3b-3b-3b----1-3-3b--3b-3b-3br1-----3-----------------------------|
G|-2------------------2--------------------2-0-2-----------------------------|
D|---------------------------------------------0-----------------------------|
A|---------------------------------------------------------------------------|
E|---------------------------------------------------------------------------|

e|-0-3-5-/7-/7-/5-/5-3-0-----------------------------------------------------|
B|-----------------------3-1-------------------------------------------------|
G|---------------------------2-0---2-----------------------------------------|
D|-2-5-7-/9-/9-/7-/7-5-2-0---------------------------------------------------|
A|-------------------------3-0---0-------------------------------------------|
E|---------------------------------------------------------------------------|

e|------------0---------------3--3---7---------------3-----------------------|
B|--1--3--------1--1--0--1--3----3------3----------4---4---------------------|
G|--0--------0--0--2--0--0-------4------4--5-------4-------------------------|
D|--2------2----2--3--0--2--4-----------3----5-------------------------------|
A|-3-----3------3--3--2--3--5-----------5------------------------------------|
E|-----------------1--3---------3-------3-------3----------------------------|

e|-------0-------------------------------------------1-----------------------|
B|-1--3-----1-----0--1-----------5--1--------3--3-5--3--1-0------------------|
G|-0-----0--0--2--0--1-1---0--5--5--0-0------5-------2----2------------------|
D|-2-----2--2--3--0--1-----0-----7--2---2----4-------0----1------------------|
A|-3-----3--3--3--2--3--3--2-----5--3-----3--5------------2------------------|
E|-------------1--3--------3-------------------------------------------------|

e|--------5---7-5------------0--0-2-3-------3p0------------------------------|
B|------4---4-----4-------4--0-------3--1---1---1----------------------------|
G|------------------4---4----0----------3---------3--------------------------|
D|-3/4----------------4------2-----------------------------------------------|
A|---------------------------2----------3---3--------------------------------|
E|---------------------------0-----------------------------------------------|

e|-------1--3/5/7--8p7p5---------3p5-3---/5-3--------------------------------|
B|-------1---------5-----5-------4-----4------4------------------------------|
G|-------2---------5-------5-----3--------------3----------------------------|
D|---------------------------7-----------------------------------------------|
A|-----------------------------7---------------------------------------------|
E|-2--1----------------------------------------------------------------------|

e|--1--3p1-0---------1----1--3-1h3---0--------------0------------------------|
B|--2--------2-------3----3----------3--3------3br-----3---------------------|
G|--0----------0--2--2----2----------1----1--1-------------------------------|
D|-------------------0--0----------------------------------------------------|
A|-0-------------------------------------------------------------------------|
E|---------------------------------0-----------------------------------------|

e|---------------------------------2----------1--1---------------------------|
B|--0h1---1-----------1----------1----3-3-1---3--3---------------------------|
G|--2---2---2-------0---0------2------2-2-2---2--2---------------------------|
D|------------2---2-------2-----------------0----0---------------------------|
A|-0-------------------------------------------------------------------------|
E|--------------3------------2--------2--------------------------------------|

e|---------3----3---0-------------0---------------5-------5------0h1---------|
B|-3----6b---6b-----0-0---------0---0-----------5---5--8b---8p5--3-----------|
G|-4----4-----------0---0-----0-------0-------6--------6---------2-----------|
D|-3----3-----------------2-----------------5----------5---------0-----------|
A|---------------------------------------------------------------------------|
E|-3--3------------0--------0------------/5------------5---------------------|

e|-1----1-3-1h3--1--------0------------3-------------------------1--3--------|
B|-3----3--------3--5--4--0----------3---6-5-5h6-5------1-1------3--3--------|
G|-2----2--------2--2--2--0----------4------------------2---2----2--4--------|
D|-0--0----------0--4--4--------------------------------3-----3--3-----------|
A|------------------2--2---------2-------------------------------------------|
E|------------------------0--0-3---3---------------2--1-------------3--------|

e|----0--0---0-------5--------5-----------1--1-1-3----0----------------------|
B|-6--0------0----5----8----8---5/6-------3--3-3-3----0-3--------------------|
G|----0------0----6------6--6-------7-7---2-----------0----------------------|
D|----------------5---------------------0------------------------------------|
A|---------------------------------------------------------------------------|
E|----0----0------5---------------------------------0------------------------|

e|-------------------------------2----------------0h1------------------------|
B|-1-1------------1------------1---1--3--1--------3--------------------------|
G|-2---2--------0---0--------2-------------2-2----2----2---------------------|
D|-2-----2----2-------2----0--------------------0------0--3--0--3------------|
A|-0-------------------------------------------------------------------------|
E|----------3------------2---------------------------------------------------|

e|-0--3---------------------------------0----5--3----------------------------|
B|-0----5----------------1--1--1-1------0----2-------------------------------|
G|-0------4---------4----2-----2---2----0----2-------------------------------|
D|------------5-2-5---5--3-----3-----3-------2-------------------------------|
A|-----------------------3-----3-----------0---------------------------------|
E|-0---------------------1-----1--------0------------------------------------|

e|-1--0--8p5--3--------------------------------------------------------------|
B|-3--2--6----3--1--1-3-5--------5--8-----6--6p5-----------------------------|
G|-2--0--5----4--0--------5-2-4--5--8--5--6--5-------------------------------|
D|-0--2--7----3--2---------------5--8--6--6--5-------------------------------|
A|----0-5--------3---------------3--6--6--4--3-------------------------------|
E|------------3------------------------4-------------------------------------|


************************************

| /   slide up
| \   slide down
| h   hammer-on
| p   pull-off
| ~   vibrato
| +   harmonic
| x   Mute note
| b   Bend
| pb  Pre-bend
| br  Bend release
| pbr Pre-bend release
| brb Bend release bend

************************************
Добавлено: 19.12.2015
Другие материалы по этой песне:
  • Аккорды и текст

Страница создана 19.12.2015
http://primanota.ru/davey-graham/ballad-of-sad-young-men-chords.htm
Привет, Гость.
Предлагаем пройти революционный курс по гитаре.
Подарок от PrimaNota.Ru, забирай!