PrimaNota.ru - самый крупный в мире бесплатный архив песенных текстов, аккордов, табулатур и нот


Dave Van Ronk - Yas Yas Yas - таба, видео

Регистрация Запомнить меня
Войти через:  Facebook Google Twitter Vk Yandex Mail.ru

Dave Van Ronk - Yas Yas Yas - таба, видео

Печатать
Просмотров: 117
Уроки эстрадного вокала в Санкт-Петербурге
Dave Van Ronk
Yas Yas Yas
Standard Tuning
This is my first time writing a fingerpicking tab, so please give me any pointers or 
advice to help make the pattern clearer. Good luck!


This first version is lower on the neck:
E-------------------3---1h0-1----------3---6-3-------6-6-5-6-------8-6--|
B---6-----6---6-----0---0---0-3--------0---0-0-------0-0-0-0------------|
G---0---0-0---0---------------------------------------------------------|
D-----------------------------------------------------------------------|
A----------------------------------s/3---3---3---3---3---3---3---3------|
E-6---6---5---4---3---3-----3---3---------------------------------------|

E----1----1--------------------------------------------------------------------|
B---1---4-----1-3h4p3p1-3-4----3-4-----------3---4---5---5---6-4---------------|
G----------------------------------------------------------------6-3---3---3---|
D----------------------------------------------2-------------------------------|
A--0---0----0---0------0-----0-----0---0---1-----------------------------------|
E--------------------------------------------------6---6-----5---5---6---6-----|

Alternate Version, sounds just about the same:
E-------------------3---1h0-1--------------6---------6-6---6-------8-6--|
B---6-----6---6-----0---0---0-3--------8-----8-----------10-------------|
G---0---0-0---0---------------------------------------------------------|
D-----------------------------------------------------------------------|
A-----------------------------------------------------------------------|
E-6---6---5---4---3---3-----3---3--s/8---8---8---8---8---8---8---8------|

E----1----1--------------------------------------------------------------------|
B---1---4-----1-3h4p3p1-3-4----3-4-----------3---4---5---5---6-4---------------|
G----------------------------------------------------------------6-3---3---3---|
D----------------------------------------------2-------------------------------|
A--0---0----0---0------0-----0-----0---0---1-----------------0---0-------------|
E--------------------------------------------------6---6-------------6---6-----|


Momma bought a chicken well she thought it was a duck
Put him on the table with his legs stickin up
well now here comes sis, with a spoon and a glass and
start's dishin out the gravy from his yas yas yas

Momma momma take a, look at sis, you know shes
out on the levy and she's dancin like this
well come on in here sis, and come in here fast
and stop that shakin your yas yas yas

Well the old folks do it and the young folks to and the
old folks show the young folks just what to do
well now you shake your shoulders and you shakin them fast
well if you can't shake your shoulders shake your yas yas yas

Well Mr. dillinger rode up to a gasoline station
he saidthis looks like a pretty good location
well the attendant said do you want my gas
Well it's either your gas or your yas yas yas

Went out the corner in St. Augustine
you know a blind cat sat down on a sewing machine
well you know that machine, it sewed so fast
it sewed 99 stitches in his yas yas yas

Interlude

Twas the night before the christmas, all through the house
not a creature was stirring, not even a mouse
well out on the lawn there rose a big crash
it was santa clause sliding on his yas yas yas
Добавлено: 04.11.2015
Другие материалы по этой песне:
  • Аккорды и текст

Страница создана 04.11.2015
http://primanota.ru/dave-van-ronk/yas-yas-yas-chords.htm
Привет, Гость.
Предлагаем пройти революционный курс по гитаре.
Подарок от PrimaNota.Ru, забирай!