PrimaNota.ru - самый крупный в мире бесплатный архив песенных текстов, аккордов, табулатур и нот


Dave Porter - Youre All They Talk About - таба, видео

Регистрация Запомнить меня
Войти через:  Facebook Google Twitter Vk Yandex Mail.ru

Dave Porter - Youre All They Talk About - таба, видео

Печатать
Просмотров: 194
You're All They Talk About - Tab

Tuning: Standard

Note: This is from season 1 of the show, "Breaking Bad."
The timing isn't hard to get if you listen to the song 
while playing.
__________________

Key:

~= let ring
()= optional note
__________________

[0:03]
E|------------------------------------------------------------|
B|------------------------------------------------------------|
G|------------------------------------------------------------|
D|-2~------3~------2~----------2~------3~---------------------|
A|-----0~------0~------------------0~------0~--5~-------------|
E|------------------------------------------------------------|

E|------------------------------------------------------------|
B|------------------------------------------------------------|
G|------------------------------------------------------------|
D|-2~------3~-------------------------------------------------|
A|-----0~------0~--3~------5~------------2~------5~-----------|
E|---------------------5~--------------------3~------(3~)-----|


E|------------------------------------------------------------|
B|------------------------------------------------------------|
G|-2~------0~--------------------2~------0~-------------------|
D|-----------------2~----------------------------2~-----------|
A|-----3~------3~--------------------3~------3~---------------|
E|------------------------------------------------------------|

E|------------------------------------------------------------|
B|------------------------------------------------------------|
G|------------------------------------------------------------|
D|-3~------2~-------------------------------------------------|
A|-----0~------0~--5~--------2~-------------------------------|
E|---------------------(5~)-----------------------------------|

E|------------------------------------------------------------|
B|------------------------------------------------------------|
G|------------------------------------------------------------|
D|-3~------2~-------------------------------------------------|
A|-----0~------0~--5~----------------2~-----------------------|
E|------------------------------------------------------------|

E|------------------------------------------------------------|
B|------------------------------------------------------------|
G|-2~------0~-------------------------------------------------|
D|-----------------2~------------3~------2~-------------------|
A|-----3~------3~--------------------0~------0~--3~-----------|
E|------------------------------------------------------------|

If there's any confusion, questions, or advice on how to 
improve it, please post a comment. Have fun playing, and 
please rate! -Rarrlow
Добавлено: 12.07.2015
Вам также может быть интересно:
Другие материалы по этой песне:
  • Аккорды и текст

Страница создана 12.07.2015
http://primanota.ru/dave-porter/youre-all-they-talk-about-chords.htm
Привет, Гость.
Предлагаем пройти революционный курс по гитаре.
Подарок от PrimaNota.Ru, забирай!