PrimaNota.ru - самый крупный в мире бесплатный архив песенных текстов, аккордов, табулатур и нот


Dave Navarro - Slow Motion Sickness - аккорды и текст, таба, видео

Регистрация Запомнить меня
Войти через:  Facebook Google Twitter Vk Yandex Mail.ru

Dave Navarro - Slow Motion Sickness - аккорды и текст, таба, видео

Печатать
Просмотров: 124
Slow Motion Sickness
Dave Navarro
Slow Motion Sickness
"Trust No One" (2001)
by Dave Navarro
Tabbed by: John Truck

As requested by  the lyrics were removed,
so here is my attempt to show the rhythm to
the song without them.

Chords Used:
  E  F  G  A  A# C
e-0--1--3--5--6--8--
B-0--1--3--5--6--8--
G-1--2--4--6--7--9--
D-2--3--5--7--8--10-
A-2--3--5--7--8--10-
E-0--1--3--5--6--8--

Chord Progression:
|- strum
x- muted string

Intro/Verse:
    A             G             C
e||----------------------------------------------------||
B||-|--|-|-|-x----|--|-|-|-x----|--|-|-|-x--|--|-|-|-x-||
G||-|--|-|-|-x----|--|-|-|-x----|--|-|-|-x--|--|-|-|-x-||
D||-|--|-|-|-x----|--|-|-|-x----|--|-|-|-x--|--|-|-|-x-||
A||-|--|-|-|-x----|--|-|-|-x----|--|-|-|-x--|--|-|-|-x-||
E||----------------------------------------------------||
    F                                   F  E  G
e||----------------------------------------------||
B||-|--|-|-|-x--|--|-|-|-x--|--|-|-|-x--|--|--|--||
G||-|--|-|-|-x--|--|-|-|-x--|--|-|-|-x--|--|--|--||
D||-|--|-|-|-x--|--|-|-|-x--|--|-|-|-x--|--|--|--||
A||-|--|-|-|-x--|--|-|-|-x--|--|-|-|-x--|--|--|--||
E||----------------------------------------------||
last time omit the F->E->G part

Chorus:
   A#   A    E           x3  A#   A    G
e||------------------------||------------------------||
B||-|-x-|----|--|-|-|--|-|-||-|-x-|----|--|-|-|--|-|-||
G||-|-x-|----|--|-|-|--|-|-||-|-x-|----|--|-|-|--|-|-|| x2
D||-|-x-|----|--|-|-|--|-|-||-|-x-|----|--|-|-|--|-|-||
A||-|-x-|----|--|-|-|--|-|-||-|-x-|----|--|-|-|--|-|-||
E||------------------------||------------------------||

Solo: (2:08)
note: bend notes slightly when playing
e|--------------------------------------------|
B|10b-9b-5b-4b-1b-0-8b/10b-12b-13b-15b-16b----|*let last note ring*
G|--------------------------------------------|
D|--------------------------------------------|
A|--------------------------------------------|
E|--------------------------------------------|

Song Structure:
Intro x2
Verse x3 (last time omit F->E->G part)
Chorus x2
Intro x1
Verse x2 (last time omit F->E->G part)
Chorus x2
Break x2 (use verse chords)
Solo x1
Chorus x2
Break x4 (use verse chords)
Coda x6 (A->G->C->F each chord is strummed 16 times)

Questions, comments, corrections, etc., to rex_of_all@hotmail.com

     
Добавлено: 04.09.2013
Другие материалы по этой песне:

Страница создана 02.05.2012
http://primanota.ru/dave-navarro/slow-motion-sickness-chords.htm
Привет, Гость.
Предлагаем пройти революционный курс по гитаре.
Подарок от PrimaNota.Ru, забирай!