PrimaNota.ru - самый крупный в мире бесплатный архив песенных текстов, аккордов, табулатур и нот


Dave Monks - Heartbeat Blues - аккорды и текст, видео

Регистрация Запомнить меня
Войти через:  Facebook Google Twitter Vk Yandex Mail.ru

Dave Monks - Heartbeat Blues - аккорды и текст, видео

Печатать
Просмотров: 38
Heartbeat Blues
Dave Monks
Tuned down half a step


Dm
Cheerleaders hate me
F
librarians too
Bb
i look at them they look at me
      F                  C
and i realize they're looking through
Dm
shopgirls ignore me
F
and the hookers all boo
Bb
i disappear in front of them as i
F               C
walk along the avenue

           Dm     F
cause i got nobody
F        Bb          F
i must be cold-blooded
      Dm              Bb                  F
and i wonder if they hear my heartbeat blues

Dm
the dirt on my collar
F
the cracks in my skin
Bb
they never say a word to me
       F                 C
like i'm just some kinda mannequin
Dm
out on the schoolyard
F
and down on the street
Bb
i cross my heart and hope to die
F                     C
there will be someone there for me

           Dm     F
cause i got nobody
F        Bb          F
i must be cold-blooded
      Dm              Bb                  F
and i wonder if they hear my heartbeat blues


F5           D5 F5
tell me a story
Bb5                           C5                 Bb5
i got a heart that makes the sound of a rockin' band
F5             D5  F5
where are you going
Bb5                     C5                     Bb5
a happy ending doesn't happen til the audience stands
F5        D5  F5
tell me a story
Bb5                     C5                      Bb5
i got a hundred pages written on the back of my hand
F5          D5  F5
where are you going
Bb5                         C5                      Bb5
i got a heart and you can have it if you let me be your man

SOLO:
e-----------------------------------------------------------------------------|
B--8-8-8-8-8-8h10----8-8-8-8-8-8h10-------------------------------------------|
G--------------------------------------------10h12-10----------------10h12-10-|
D-------------------------------------10h12-----------12-10-X2-10h12----------|
A-----------------------------------------------------------------------------|
E-----------------------------------------------------------------------------|

e----------------------------------------------------------------------------|
B--10----10-13------13h15p13h15p13h15-------13--8h10p8h10p8h10---------------|
G-----12-------12---------------------12h14---------------------------10-----|
D---------------------------------------------------------------10h12--------|
A----------------------------------------------------------------------------|
E----------------------------------------------------------------------------|

e----------------------13-------13-12-|
B--11---------11-10-------13----------|
G-----10---------------------14-------|
D---------12--------------------------|
A-------------------------------------|
E-------------------------------------|

           Dm     F
cause i got nobody
F        Bb          F
i must be cold-blooded
      Dm              Bb                  F  C
and i wonder if they hear my heartbeat blues
Добавлено: 13.09.2015
Вам также может быть интересно:
Другие материалы по этой песне:
  • Аккорды и текст

Страница создана 13.09.2015
http://primanota.ru/dave-monks/heartbeat-blues-chords.htm
Привет, Гость.
Предлагаем пройти революционный курс по гитаре.
Подарок от PrimaNota.Ru, забирай!