PrimaNota.ru - самый крупный в мире бесплатный архив песенных текстов, аккордов, табулатур и нот


Dave Melillo - Excuses - текст песни, таба, видео

Регистрация Запомнить меня
Войти через:  Facebook Google Twitter Vk Yandex Mail.ru

Dave Melillo - Excuses - текст песни, таба, видео

Печатать
Просмотров: 162
Уроки эстрадного вокала в Санкт-Петербурге
No tab for it so i sat and did it a little.. this is all i got out of it.. first tab on 
so add to it if you can...EDOUGALS

Intro:
e|-----------------------------------------------------------------|
b|------4----5----4-----5-------5-----4-----5-----4----------------|
g|---------4----4----4-----4-------4-----4-----4-------------------|
d|-----------------------------------------------------------------|
a|-----------------------------------------------------------------|
E|-----------------------------------------------------------------|


CHORUS
e|------0-----------0-------------0---------------------------|
b|------0-----------0-------------0---------------------------|
g|------4-----------2-------------9---------------------------|
d|------4-----------2-------------9---------------------------|
a|------2-----------0-------------7---------------------------|
E|------------------------------------------------------------|
Добавлено: 13.06.2012
Другие материалы по этой песне:
  • Аккорды и текст

Страница создана 01.05.2012
http://primanota.ru/dave-melillo/excuses-chords.htm
Привет, Гость.
Предлагаем пройти революционный курс по гитаре.
Подарок от PrimaNota.Ru, забирай!