PrimaNota.ru - самый крупный в мире бесплатный архив песенных текстов, аккордов, табулатур и нот


Dave Matthews Band - Virginia In The Rain - таба, видео

Регистрация Запомнить меня
Войти через:  Facebook Google Twitter Vk Yandex Mail.ru

Dave Matthews Band - Virginia In The Rain - таба, видео

Печатать
Просмотров: 57
Dave Matthews Band
Virginia In The Rain

Transcribed for guitar

Tuning: Standard

Intro/Verse
e|----------------------------------|
B|------8-------8-------8-------8---|
G|--5-------5-------5-------5-------|
D|----8-------7-------6-------5-----|
A|----------------------------------|
E|----------------------------------|

Chorus
e|--(10)------(10)--(8)---|
B|---11---10--(10)--(8)---|
G|---12---10---10----9----|
D|---12---10---12----10---|
A|---10---8----12----10---|
E|-------------10----8----|
Добавлено: 01.10.2015
Другие материалы по этой песне:
  • Аккорды и текст

Страница создана 01.10.2015
http://primanota.ru/dave-matthews-band/virginia-in-rain-chords.htm
Привет, Гость.
Предлагаем пройти революционный курс по гитаре.
Подарок от PrimaNota.Ru, забирай!