PrimaNota.ru - самый крупный в мире бесплатный архив песенных текстов, аккордов, табулатур и нот


Dave Matthews Band - Trouble With You - текст песни, таба, видео

Регистрация Запомнить меня
Войти через:  Facebook Google Twitter Vk Yandex Mail.ru

Dave Matthews Band - Trouble With You - текст песни, таба, видео

Печатать
Просмотров: 126
Уроки эстрадного вокала в Санкт-Петербурге
This track is a studio recording that didn't make the cut for the new album.
It appears on the limited edition CD companion to Stan Up. I think it should
have been on the album.  It's a great DMB song. Here is the tab for the whole
song. Enjoy


Drop D 

This riff occurs throughout the song except for the little bridge in the middle.
Listen the song for the rhythm and the timing of the chord changes 

E|-|---------------------------------------------------------------|
B|-|---------------------------------------------------------------|
G|-|--------------8/9--9----2-2----6-6---1-1-----------------------|
D|-|---------------------------------------------------------------|
A|-|---------------------------------------------------------------|
D|-|-----(10-10)-10/11-11---4-4----7-7---2-2-----------------------|
             
(The little bridge in the middle)
E|-|---------------------------------------------------------------|
B|-|---------------------------------------------------------------|
G|-|------8/9--9----2-2-------1-1----------------------------------|
D|-|---------------------2-2-------4-4-----------------------------|
A|-|---------------------------------------------------------------|
D|-|-----10/11-11—--4-4--2-2--2-2—-0-0-----------------------------|
Добавлено: 10.03.2012
Другие материалы по этой песне:
  • Аккорды и текст

Страница создана 10.03.2012
http://primanota.ru/dave-matthews-band/trouble-with-you-chords.htm
Привет, Гость.
Предлагаем пройти революционный курс по гитаре.
Подарок от PrimaNota.Ru, забирай!