PrimaNota.ru - самый крупный в мире бесплатный архив песенных текстов, аккордов, табулатур и нот


Dave Matthews Band - Trippin Billies - таба, видео

Регистрация Запомнить меня
Войти через:  Facebook Google Twitter Vk Yandex Mail.ru

Dave Matthews Band - Trippin Billies - таба, видео

Печатать
Просмотров: 80
Dave Matthews Band
Album: Crash
Song: Trippin' Billies

This is the intro that isn't played on Crash but it is played on all of the=20
other versions:
                    then it is followed by this chord pattern:

                                              3x                     =20
E||--------------------|----------------------||---------------------|
B||--------------------|----------------------||---------------------|
G||--6--------4--------|--6------4--7--------*||*--2----4------------|
D||--2--------2--------|--2------2--2--------*||*--0----0------------|
A||--x--------x--------|--x------x--x---------||---x----x------------|
E||--5--------5--------|--5------5--7---------||---2----3------------|


                                                                     =20
----------------------|--------------------|------------------------||
----------------------|--------------------|------------------------||
--2----4----7----6----|--2----4------------|--2--4--6--7-----------*||
--0----0----0----x----|--0----0------------|--0--0--x--0-----------*||
--x----x----x----x----|--x----x------------|--x--x--x--x------------||
--2----3----7----5----|--2----3------------|--2--3--5--7------------||


AND THEN IT GETS INTO THE REALLY FAST PART THAT REALLY FITS THE SONG
WELL AND IT'S MY FAVORITE PART OF THE SONG:

We were above.... =20
                                                   =20
E||--------------------------|--------------------------|
B||--------------------------|-----------0--------------|
G||-----6--4--0--------7--7--|-----8/-9-----------------|
D||-----2--2--0--------7--7--|--------------7-----9--9--|
A||--------------3/-5--5--5--|--7-----------------9--9--|
E||--5-----------------------|--8--------------7--7--7--|


                                                =20
--------------------------|--------------------||
--------------------------|--------------------||
-----6--4--0--------7--7--|------2----4--------||
-----2--2--0--------7--7--|------0----0--------||
--------------3/-5--5--5--|------x----x--------||
--5-----------------------|------2----3--------||


G why would you care....

|--------------------|-----------------------|--------------------|
|--------------------|-----------------------|--------------------|
|--7--------6--------|--2--4--6--7--6--------|--7--------6--------|
|--0--------x--------|--0--0--x--0--x--------|--0--------x--------|
|--x--------x--------|--x--x--x--x--x--------|--x--------x--------|
|--7--------5--------|--2--3--5--7--5--------|--7--------5--------|


                     =20
|--------------------||
|--------------------||
|--2--4--6--7--------||
|--0--0--x--0--------||
|--x--x--x--x--------||
|--2--3--5--7--------||


These parts get repeated throughout the song even during the jam!

any questions or comments please contact me Ftball5589@aol.com=20

     
Добавлено: 21.08.2013
Другие материалы по этой песне:
  • Аккорды и текст

Страница создана 21.08.2013
http://primanota.ru/dave-matthews-band/trippin-billies-chords.htm
Привет, Гость.
Предлагаем пройти революционный курс по гитаре.
Подарок от PrimaNota.Ru, забирай!