PrimaNota.ru - самый крупный в мире бесплатный архив песенных текстов, аккордов, табулатур и нот


Dave Matthews Band - Sweet Up And Down - аккорды и текст, таба, видео

Регистрация Запомнить меня
Войти через:  Facebook Google Twitter Vk Yandex Mail.ru

Dave Matthews Band - Sweet Up And Down - аккорды и текст, таба, видео

Печатать
Просмотров: 165
Уроки эстрадного вокала в Санкт-Петербурге
Sweet Up And Down
Dave Matthews Band
Author/Artist: Dave Matthews Band
Title: Sweet Up And Down
Album: Lillywhite Sessions
Transcribed by: Kyle Winslow
Email: davematthewsb633@hotmail.com
 
--------------------------|---------------------------------------------------|
--------------------------|---------------------------------------------------|
--------------------------|---------------------------------------------------|
--9-9-9--7-7-7------------|-2-2--4-4--5-5--7-7--------------------------------|
--9-9-9--7-7-7------------|-2-2--4-4--5-5--7-7--------------------------------|
--7-7-7--5-5-5------------|-0-0--2-2--3-3--5-5--------------------------------|
 Intro         Repeat 7x's    This ending is on  the 8 time

--------------|--------------------------------------|------------------------|
--------------|--------------------------------------|------------------------|
--------------|--------------------------------------|------------------------|
-9-9-9--7-7-7-|2-2--4-4--5-5--7-7--------------------|-4--5-----------------9-|
-9-9-9--7-7-7-|2-2--4-4--5-5--7-7--------------------|-4--5-------------------|
-7-7-7--5-5-5-|0-0--2-2--3-3--5-5--------------------|-2--3-------------------|
  Verse/Chorus--This ending is for the first 3 times   ^this is for the 4x

------------------------------------------------------------------------------|
------------------------------------------------------------------------------|
------------------------------------------------------------------------------|
-9-9-9--7-7-7-----------------------------------------------------------------|
-9-9-9--7-7-7-----------------------------------------------------------------|
-7-7-7--5-5-5-----------------------------------------------------------------|
 Boyd Solo        Boyd solos... then you repeat
Добавлено: 01.01.2014
Другие материалы по этой песне:
  • Аккорды и текст

Страница создана 09.04.2012
http://primanota.ru/dave-matthews-band/sweet-up-and-down-chords.htm
Привет, Гость.
Предлагаем пройти революционный курс по гитаре.
Подарок от PrimaNota.Ru, забирай!