PrimaNota.ru - самый крупный в мире бесплатный архив песенных текстов, аккордов, табулатур и нот


Dave Matthews Band - Spaceman - таба, бас-таба, видео

Регистрация Запомнить меня
Войти через:  Facebook Google Twitter Vk Yandex Mail.ru

Dave Matthews Band - Spaceman - таба, бас-таба, видео

Печатать
Просмотров: 163
Spaceman- Dave Matthews Band
Off the new album Big Whiskey and the Groogrux King

A pretty simple song really. It's just real hard to sing to because of how fast he sings.


Intro:

/=slide

e-----------------------------------------------------------|
B-----------------------------------------------------------|
G—2/6----------------------2/6------------------------------|
D-----------------------------------------------------------|
A-----------------------------------------------------------|
E-----------------------------------------------------------|


Verse:

Not much going on with the guitar in general so the ( ) are optional things to fill in the sound.

e----------------------------------------------------------|
B----------------------------------------------------------|
G—2/6--------6--7---4-----------2--0-----------------------|
D---------7-------------(5)--------------------------------|
A----------------------------------------------------------|
E-------5-----------(3)-----(3)----------------------------|


Bridge: (ah, ah, ah, yeah)

~=hold (HIT THEM ON THE UPBEATS)
    F        G        A
e-------------------------------------------------------------|
B-------------------------------------------------------------|
G---x-2-x-2--x-4-x-4--x-6-x-6---------------------------------|
D---x-x-x-x--x-x-x-x--x-x-x-x---------------------------------|
A---x-x-x-x--x-2-x-2--x-4-x-4---------------------------------|
E---x-1-x-1--x-3-x-3--x-5-x-5---------------------------------|

3x then it goes directly into chorus

Chorus:

    D  A  Bm G       D  A  C    D   A  Bm  G     F   G
e---2--------3-------2-----3----2----------3-----1---3-----------------|
B---3--2--3--3-------3--2--3----3---2--3---3-----1---3-----------------|
G---2--2--4--0-------2--2--0----2---2--4---0-----2---0-----------------|
D---0--2--4--0-------0--2--2----0---2--4---0-----3---0-----------------|
A------0--2--2----------0--3--------0--2---2-----3---2-----------------|
E------------3-----------------------------3-----1---3-----------------|
Добавлено: 07.07.2012
Другие материалы по этой песне:
  • Аккорды и текст

Страница создана 02.03.2012
http://primanota.ru/dave-matthews-band/spaceman-chords.htm
Привет, Гость.
Предлагаем пройти революционный курс по гитаре.
Подарок от PrimaNota.Ru, забирай!