PrimaNota.ru - самый крупный в мире бесплатный архив песенных текстов, аккордов, табулатур и нот


Dave Matthews Band - Sattelite - таба, видео

Регистрация Запомнить меня
Войти через:  Facebook Google Twitter Vk Yandex Mail.ru

Dave Matthews Band - Sattelite - таба, видео

Печатать
Просмотров: 89
/= slide [in 6/8/4 you only hit the string once. (at the 6)]
^= upstroke

intro_______________________________________________
guitar 1 x4
----------------------------------------------------|
----------------------------------------------------|
----------------------------------------------------|
-----8---6---5---3---6---------8---6---5---3---6----|
---6---4---3---1---1/4-4-----6---4---3---1---1/4-4--|
-4-------------------------4------------------------|

----------------------------------------------------|
----------------------------------------------------|
----------------------------------------------------|
-----8---6---5---3---6---------8---6---5------------|
---6---4---3---1---1/4-4-----6---4---3--------------|
-4-------------------------4------------------------|

guitar 2
-x6--x6--x6--x6--x6--x6--x6/8/4--x3/4-x6/8/4--------|
----------------------------------------------------|
----------------------------------------------------|
----------------------------------------------------|
----------------------------------------------------|
----------------------------------------------------|

-x6/8/4--x3/4--x6/8/4--x4/3-/1--x6/8/4--x3/4--x6/8/4-|
-----------------------------------------------------|
-----------------------------------------------------|
-----------------------------------------------------|
-----------------------------------------------------|
-----------------------------------------------------|

-x6-4-3-1-4--x6-4-3-1-4--x6h8p6-x4/11--x6h8p6-4-----|
----------------------------------------------------|
----------------------------------------------------|
----------------------------------------------------|
----------------------------------------------------|
----------------------------------------------------|


verse_______________________________________________
guitar 1
(same as intro)

guitar 2 (don't play first and last verses)
-x6-4-3-1-3/6-x6-4-3-1-3/8-x6-4-3-1-3/6-x6-4-3------|
----------------------------------------------------|
----------------------------------------------------|
----------------------------------------------------|
----------------------------------------------------|
----------------------------------------------------|
variation
-x6-4-3-1-4--x6-4-3-1-4-x6-4-3-1-4--x6-4-3-1-4------|
----------------------------------------------------|
----------------------------------------------------|
----------------------------------------------------|
----------------------------------------------------|
----------------------------------------------------|

end verse 1_________________________________________
guitar 1
----------------------------------------------------|
----------------------------------------------------|
----------------------------------------------------|
-------------------6--------------------------------|
-6-6-6-6-6-6-6-6-6-6-6-6----------------------------|
-4-4-4-4-4-4-4-4-4-4-4-4----------------------------|


end verse 2_________________________________________
guitar 1
-----------------------------(3)--(4)--(6)--(8)-----|
-------------------(4)--(6)-------------------------|
----------------------------------------------------|
----------------------------------------------------|
----------4--6--8-----------------------------------|
-4--6--8--------------------------------------------|

chorus 1____________________________________________
guitar 1
(3 times)
----------------------------------------------------|
----------------------------------------------------|
----6-----8--8--8--8--------------------------------|
----6-----6--6--8--8--------------------------------|
-x--x--x--4--4--6--6--------------------------------|
-4-----4--------------------------------------------|

(last time)
----------------------------------------------------|
----------------------------------------------------|
----6-----8--8--8-----------------------------------|
----6-----6--6--8-----------------------------------|
-x--x--x--4--4--6-----------------------------------|
-4-----4--------------------------------------------|


chorus 2____________________________________________
guitar 1
(3 times)
---------------^-------------------------------------|(3)
-------^-3-3-x-x-4--------------------------(4)-(6)--|
-5-5-x-x-4-4-x-x-6-----------------------------------|
-6-6-x-x-4-4-x-x-6-----------------------------------|
-6-6-x-x-2-2-x-x-4----------------(4)-(6)-(8)--------|
-4-4-x-x----------------(4)-(6)-(8)------------------|

(last time)
---------------^------------------------------------|
-------^-3-3-x-x-4----------------------------------|
-5-5-x-x-4-4-x-x-6----------------------------------|
-6-6-x-x-4-4-x-x-6----------------------------------|
-6-6-x-x-2-2-x-x-4----------------------------------|
-4-4-x-x--------------------------------------------|


guitar 2
(3 times)
       ^          ^
-4-4-x-x-/8--8--x-x-9-----9-------------------------|
-4-4-x-x-/8--8--x-x-9-----9-------------------------|
-5-5-x-x-/8--8--x-x-10----10--(3 times)-------------|
-6-6-x-x--10-10-x-x-11----11------------------------|
----------------------------------------------------|
----------------------------------------------------|

(last time)
       ^          ^
-4-4-x-x-/8--8--x-x-9-------------------------------|
-4-4-x-x-/8--8--x-x-9-------------------------------|
-5-5-x-x-/8--8--x-x-10------------------------------|
-6-6-x-x--10-10-x-x-11------------------------------|
----------------------------------------------------|
----------------------------------------------------|
____________________________________________________
Добавлено: 21.06.2012
Другие материалы по этой песне:
  • Аккорды и текст

Страница создана 21.06.2012
http://primanota.ru/dave-matthews-band/sattelite-chords.htm
Привет, Гость.
Предлагаем пройти революционный курс по гитаре.
Подарок от PrimaNota.Ru, забирай!