PrimaNota.ru - самый крупный в мире бесплатный архив песенных текстов, аккордов, табулатур и нот


Dave Matthews Band - Number 40 - таба, видео

Регистрация Запомнить меня
Войти через:  Facebook Google Twitter Vk Yandex Mail.ru

Dave Matthews Band - Number 40 - таба, видео

Печатать
Просмотров: 66
#40

from Dave Matthews Band
Listener Supported


Intro - free time
------------- --------------
-----1------- ---1-------1--
---0-----0-0- ---0-------0--
------------- ---2-------2--
-3-----2----- --------------
------------- -1------3--3--

Verse
"Tables turned again...
----------- ------- ---------
-----1----- ---1--- ---1-----
---0-----0- ---0--- ---0-----
----------- ---2--- ---2-----
-3-----2--- ------- ---------
----------- -1----- -3-------

...each other time and time out.
----------- ------- ---------
-----1----- ---1--- ---1-----
---0-----0- ---0--- ---0-----
----------- ---2--- ---2-----
-3-----2--- ------- ---------
----------- -1----- -3-------

I know sometimes it's hard....
----------- ------- ---------
-----1----- ---1--- ---1-----
---0-----0- ---0--- ---0-----
----------- ---2--- ---2-----
-3-----2--- ------- ---------
----------- -1----- -3-------

...That we will get along......
----------- ------- ---------
-----1----- ---1--- ---1-----
---0-----0- ---0--- ---0-----
----------- ---2--- ---2-----
-3-----2--- ------- ---------
----------- -1----- -3-------

...and think of times.....
----------- ------- ---------
-----1----- ---1--- ---1-----
---0-----0- ---0--- ---0-----
----------- ---2--- ---2-----
-3-----2--- ------- ---------
----------- -1----- -3-------

...when we thought all it would end....
----------- ------- ---------
-----1----- ---1--- ---------
---0-----0- ---0--- ---------
----------- ---2--- ---------
-3-----2--- ------- ---------
----------- -1----- -3-------

Pre-Chorus

"And know that I'm yours.......
----------- --2--- -3--- -------
-----1----- --3--- -3--- -3--3--
---0-----0- --2--- -0--- -2--2--
----------- --0--- -0--- -0--0--
-3-----2--- --0--- -2--- -------
----------- --2--- -3--- -2-----
              T           T

...oh my friend, it will be you until the end with me....
------3-- --------5---- --------
------3-- --------5---- --------
------0-- --------6---- --------
------0-- --------7---- -4---4--
------2-- -----7--7---- -2------
-2--3---- --5-----5---- -----4--

Chorus
"Always.......
------------------- -----------
-----------1------- --1----1---
-4--5----0-----0-0- --0----0---
-4--5-------------- --2----2---
-3--3--3-----2----- -----------
------------------- -1---3-----

Always......
------------------- -----------
-----------1------- --1----1---
-4--5----0-----0-0- --0----0---
-4--5-------------- --2----2---
-3--3--3-----2----- -----------
------------------- -1---3-----

Always."
-------------
-------------
-4--5--------
-4--5--------
-3--3--------
-------------


Scott Taylor
School of Music
The Florida State University
http://www.geocities.com/sequenzax
AOL IM: tromba1B
"Eat, drink, and be merry, for tomorrow we shall die." - Epicurus
     
Добавлено: 11.09.2013
Другие материалы по этой песне:
  • Аккорды и текст

Страница создана 11.09.2013
http://primanota.ru/dave-matthews-band/number-40-chords.htm
Привет, Гость.
Предлагаем пройти революционный курс по гитаре.
Подарок от PrimaNota.Ru, забирай!