PrimaNota.ru - самый крупный в мире бесплатный архив песенных текстов, аккордов, табулатур и нот


Dave Matthews Band - Num - таба, видео

Регистрация Запомнить меня
Войти через:  Facebook Google Twitter Vk Yandex Mail.ru

Dave Matthews Band - Num - таба, видео

Печатать
Просмотров: 100
Уроки эстрадного вокала в Санкт-Петербурге


#40
Dave Matthews Band
Unreleased
Tabbed By Louis Sedia
DMBojangles41@yahoo.com


Intro/Verse
 -u can also hit the mutes (x) as open strings
 -u may hit the notes in parenthesis when strumming the chords

e------0--------0-------0-------0--
B------1--------1-------1-------1--
G------x--------x-------x-------x--
D------2--------2-------2-------2--
A--3--(3)---1--(1)-----------------
E---------------------1------3-----


Chorus

e------0--------0------2-------3-------3------------
B------1--------1------3-------3-------3----2----3--
G------x--------x------2-------0-------0----2----4--
D------2--------2------0-------0-------0----2----4--
A--3--(3)---1--(1)-------------2-------2---------2--
E------------------------------3--2-3--3------------


Always.../End

e----------
B----------
G---4---5--
D---4---5--
A---3---3--
E----------


Добавлено: 04.02.2014
Другие материалы по этой песне:
  • Аккорды и текст

Страница создана 04.02.2014
http://primanota.ru/dave-matthews-band/num-chords.htm
Привет, Гость.
Предлагаем пройти революционный курс по гитаре.
Подарок от PrimaNota.Ru, забирай!