PrimaNota.ru - самый крупный в мире бесплатный архив песенных текстов, аккордов, табулатур и нот


Dave Matthews Band - Lousiana bayou - таба, видео

Регистрация Запомнить меня
Войти через:  Facebook Google Twitter Vk Yandex Mail.ru

Dave Matthews Band - Lousiana bayou - таба, видео

Печатать
Просмотров: 96
Уроки эстрадного вокала в Санкт-Петербурге


Tabbed by: Adam Zaccaria
Email:adzack3441@yahoo.com

Tuning: standard

e|----------------------------------
B|----------------------------------
G|----------------------------------
D|----------------------------------
A|-------7p5--5------5p4-----------
E|-5-5-----------5------------------|

This is the verse and chorus

e|-------------------------------------------------------
B|-------------------------------------------------------
G|-14--12---10------10--9---7-----9--7--6-----7---6------
D|----------------------------------------------------7--
A|-12--10---8-------8---7---5-----7--5--4-----5---4------
E|----------------------------------------------------5--

This is the change they go to after Dave says, "Shame, shame..."




| /  slide up
|   slide down
| h  hammer-on
| p  pull-off
| ~  vibrato
| +  harmonic
| x  Mute note


Добавлено: 15.02.2014
Другие материалы по этой песне:
  • Аккорды и текст

Страница создана 15.02.2014
http://primanota.ru/dave-matthews-band/lousiana-bayou-chords.htm
Привет, Гость.
Предлагаем пройти революционный курс по гитаре.
Подарок от PrimaNota.Ru, забирай!