PrimaNota.ru - самый крупный в мире бесплатный архив песенных текстов, аккордов, табулатур и нот


Dave Matthews Band - Hold Me Down - аккорды и текст, таба, видео

Регистрация Запомнить меня
Войти через:  Facebook Google Twitter Vk Yandex Mail.ru

Dave Matthews Band - Hold Me Down - аккорды и текст, таба, видео

Печатать
Просмотров: 128
Hold Me Down
Dave Matthews Band



Date: 	Wed, 16 Dec 1998 13:26:24 -0500 (EST)
From: Eric Jeschke 
Subject: m/matthews_dave_band/hold_me_down.crd


			 --------------------
			 -   Hold Me Down   -
			 - by Dave Matthews -
 			 --------------------
		            Transcribed by:
			      Todd Burner
			   and Eric Jeschke
			 --------------------

I will break this song up into a few parts. It is from a 2/19/96 show with
Dave and Tim. So here goes, by the way, the words are really tough to
understand, as per usual. Find a recording to get the rhythm. It really
can be broken up into any structure.


Intro and Chorus (Part A)

E  -----------------------------|
B  -----------------------------|
G  ----11----9----12----7--7----|
D  ----0-----0----0-----0--0----|
A  -----------------------------|
E  ----10----9----12----7--6----|



Part B
 
E  ----------------------------------|
B  ----------------------------------|  
G  ----9----11----6----4----11---12--|   
D  ----0----0-----0----0----0----0---|   
A  ----------------------------------|    
E  ----9----10----5----3----10---12--|   
                                   

Part C

E -------------------------------|                              
B -------------------------------|                              
G ----7----6----4---11----12-----|                                
D ----0----0----0---0-----0------|                              
A -------------------------------|                              
E ----7----5----3---10----12-----|


Part D

E --------------------------------|
B --------------------------------|
G ----9----11----2----4----12-----|
D ----0----0-----0----0----0------|
A --------------------------------|
E ----9----10----2----3----12-----|

Part E

E -------------------------------------|
B -------------------------------------|
G ----6----7----6----4----11----12-----|
D ----0----0----0----0----0-----0------|
A -------------------------------------|
E ----5----7----5----3----10----12-----|
                                     

Part F

E -------------------------------------|
B ----10---10--------------------------|
G -------------------------------------|
D -------------------------------------|
A ----8----7---------------------------|
E -------------------------------------|

Part G

E -------------------------------------|
B -------------------------------------|
G -----------------------11------------|
D -------------------------------------|
A ---9---7--9--------------------------|
E ---10--9--10--5--3--3--10------------|

Lyrics:

(A X 4)

(B) Hold..
(B) Hold ..
(C) Cry ...
(D) Oh, ..

(A) And ..
(A) And ..
(A) And ..
(A) And ..

(F)

(E) Oh ..
(B) While ..
(B) Hold ..
(B) Hold ..

(C) Cry as..
(D) Though ..

(A) And ..
(A) And ..
(A) And ..
(A) And ...

(F)

(E) Oh oh ..
(C) Cry..

(A) And ..
(A) And ..
(A) And ..
(A) I ..

(F)

(G) Oh ..
(C) Cry as..

(A X 4)

(F)


Добавлено: 06.10.2013
Другие материалы по этой песне:
  • Аккорды и текст

Страница создана 30.03.2012
http://primanota.ru/dave-matthews-band/hold-me-down-chords.htm
Привет, Гость.
Предлагаем пройти революционный курс по гитаре.
Подарок от PrimaNota.Ru, забирай!