PrimaNota.ru - самый крупный в мире бесплатный архив песенных текстов, аккордов, табулатур и нот


Dave Matthews Band - Destiny - аккорды и текст, видео

Регистрация Запомнить меня
Войти через:  Facebook Google Twitter Vk Yandex Mail.ru

Dave Matthews Band - Destiny - аккорды и текст, видео

Печатать
Просмотров: 82
Destiny
Dave Matthews Band
Dave Matthews (solo)
Destiny (rare/unreleased)
from the 9/11/92 DKE house show
tabbed by Chris Schrenk (this is my own work, I promise)

This is great song to play, once you've figured it out!!!! 
Dave only played this song once or twice (I think), but I know it from 
the 9/11/92 DKE house show he did at UVA If you don't have the song 
to listen to, I recommend either downloading it, or start tape-trading.


I'm gonna tab out the chords (easy chords) and then give you the song 
broken down into sections. Hope this helps you figure it out.

G(oct)	E(open note)   		Verse Chords		First Break 
										Chords

-----		-----		-----		-----	-----	-----		
-----		-----		-----		-----	-----	-----		
-----		----- or 	-----		-----	-----	-----		
--5--		-----		-----		--9--	--7--	--5--		
-----		-----		--2--		--10-	--9--	--7--		
--3--		--0--		--0--		--0--	--0--	--0--		

-----	-----	
--3--	--2--
--2--	--2--
--2--	--2--
-----	-----	
-----	-----

Second Break Chords

-----	-----	------
-----	-----	------
--8--	--9--	--11--
-----	-----	------
-----	-----	------
--7--	--8--	--10--


Verse (use light muting 
throughout)				First Break (after about 5 verses)

------------------------------------00000000000000x000000000000000------
------------------------------------33333333333333x222222222222222------
------------------------------------22222222222222x222222222222222------
---5------------/9---7---5----------22222222222222x222222222222222------
--------2-------/10--9---7----------------------------------------------
-3---3--0--------0---0---0----------------------------------------------
								Strumming

Second Break (strumming) after verse again

------------------------------------------
------------------------------------------
-----8---------9---------11---------------
------------------------------------------
------------------------------------------
-----7---------8---------10---------------

Verse (approx. 8 times).......first break.....verse (2 times).....

second break.....repeat.


That's it!!! Hope this helps you all out there. Thanks.

     
Добавлено: 13.06.2013
Другие материалы по этой песне:
  • Аккорды и текст

Страница создана 13.06.2013
http://primanota.ru/dave-matthews-band/destiny-chords.htm
Привет, Гость.
Предлагаем пройти революционный курс по гитаре.
Подарок от PrimaNota.Ru, забирай!