PrimaNota.ru - самый крупный в мире бесплатный архив песенных текстов, аккордов, табулатур и нот


Dave Matthews Band - Deed Is Done - текст песни, таба, видео

Регистрация Запомнить меня
Войти через:  Facebook Google Twitter Vk Yandex Mail.ru

Dave Matthews Band - Deed Is Done - текст песни, таба, видео

Печатать
Просмотров: 126
Авторы музыки: Dave Matthews Band

Date: Wed, 16 Aug 2000 23:32:49 -0400
From: "Scott Taylor" 
Subject: m/matthews_dave_band/deed_is_done.tab

"Deed is Done"


from
Dave Matthews and Tim Reynolds
Live at Luther College


Intro

Dave
------- ------------- -------------
------- ------------- -------------
------- ------------- -------------
------- ------------- -------------
-7----- ---7----6---- ---7---------
------- -7----7------ -7-----------


Dave
Figure 1
---------------------------- ----------------------------
---------------------------- ----------------------------
---------------------------- ----------------------------
---------------------------- ----------------------------
---7----6----5----4--------- ---7----6----5----4---------
-7----7----7----7----x--x-x- -7----7----7----7----x--x-x-


Tim plays ad lib figures with slide and delay effect
play Figure 1 - 5 more times


Dave
----------------------------
----------------------------
----------------------------
----------------------------
---7----6----5----4---------
-7----7----7----7----x--x-x-


then Figure 1 - 2 times with

Tim
--------------------------- --------------------------
--------------------------- --------------------------
--------------------------- -------------------2---2--
--------------------(trem)- ---------------7---5---5--
---7----6----5----4---7~~~~~15-----6---0---4----------
-7----7----7----7---------- ---0----------------------

Tim
---------------------------- ----------------------
---------------------------- ----------------------
---------------------------- ----------------------
---------------------------- ----------------------
---7----6----5----4------7-- ---7----6----5----4---
-7----0----7----7-----0----- -7----7----7----7-----



Verse 1

Oh so I pray.....oh at night.......

Dave plays Figure 1 - 12 times with

Tim
--------------------- ---------------------
--12--12-12--12--12-- -12--12-12--12--12---
--12--12-12--12--12-- -12--12-12--12--12---
--13--13-13--12--11-- -14--13-13--12--11---
--------------------- ---------------------
--------------------- ---------------------

Tim
----------------------- ------------------------------
-12-12--12-12--12------ ------------------------------
----14--12-12--12------ --------------------------4---
--------13-13--12--5--- --------5-5---5----5-5-7------
-------------------4--- ---7----6-6---5--0-4-4--------
----------------------- -7----7-----7-----------------

then Tim plays Figure 1 - 6 times then

Tim
---------------------------- -------------------------
---------------------------- ---------------------7-7-
---------------------------- -----------4-4-4-6-6-7-7-
x-5--x-5--x-5--x-4-4--4-x-4- -x-5--x-5----------------
x-7--x-6--x-5--x-4-4--4-x-4- -x-7--x-7----------------
---------------------------- -------------------------

Tim
------------------------------ -------------------------------
------------------------------ -----------3-3-4-4-5-5-6-6-7-8-
------------------------------ -----------4-4-5-5-6-6-7-7-8-9-
x-5--x-5-5-x-5--x-5-5-x-x-x-x- -x-5--x-5----------------------
x-7--x-6-6-x-5--x-4-4-x-x-x-x- -x-7--x-6----------------------
------------------------------ -------------------------------


Tim
------------------------------ -------------------------------
------------------------------ -----------3-3-4-4-6-6-5-5-4-4-
------------------------------ -----------4-4-5-5-7-7-6-6-5-5-
x-5--x-5-5-x-5--x-5-5-x-x-x-x- -x-5--x-5----------------------
x-7--x-6-6-x-5--x-4-4-x-x-x-x- -x-7--x-6----------------------
------------------------------ -------------------------------

Tim
------------------------------ -------------------------------
------------------------------ -------------------------------
------------------------------ -------------------------------
x-5--x-5-5-x-5--x-5-5-x-x-x-x- -x-5--x-5-5-x-5--x-5-5-x-x-x-x-
x-7--x-6-6-x-5--x-4-4-x-x-x-x- -x-7--x-6-6-x-5--x-4-4-x-x-x-x-
------------------------------ -------------------------------



.....the girl is gone and the deed is done......


Dave plays Figure 1 - 4 times with

Tim
--7--x-7-7-x-7--x-7-7-7-7-7-5- --7--x-7-7-x-7----------------
--8--x-8-8-x-8--x-8-8-8-8-8-7- --8--x-8-8-x-8----7---7-8--8--
------------------------------ ----------------9---9-8-9--9--
------------------------------ ------------------------------
------------------------------ ------------------------------
------------------------------ ------------------------------

Tim
--7--x-7-7-x-7--x-5-5--7-x-x- -x-7-x-x-7-7-x-7-x-x-5-x-4-3--3-
--8--x-8-8-x-8--x-7-7--8-x-x- -x-8-x-x-8-8-x-8-x-x-7-x-6-5--5-
----------------------------- --------------------------------
----------------------------- --------------------------------
----------------------------- --------------------------------
----------------------------- --------------------------------

Tim
--7--x-7-7-x-7--x-7-7--------- -7--x-7-7-x-7------------
--8--x-8-8-x-8--x-8-8--------- -8--x-8-8-x-8----------9-
-----------------------10-9-8- -------------------------
------------------------------ ---------------10--8-9---
------------------------------ -------------------------
------------------------------ -------------------------

Tim
--6--x-6-6-x-5--7-7--7-7-7- ----------7---7---8--10---7---
--8--x-8-8-x-7--8-8--8-8-8- --7---7-----------------------
--------------------------- ------------6---7---7-------9-
--------------------------- ----6---6---------------9-----
--------------------------- ------------------------------
--------------------------- ------------------------------


Verse 2

Now I pray...my prayers not heard......

Dave plays Figure 1 - 12 times
Tim plays Figure 1 -  4 times then


Tim
Figure 2(this bar twice)
------------------------------------
------------------------------------
------------------------------------
-x-5-x-x-7-7-x--9-x-x-11-11-x-x-x-x-
-x-7-x-x-9-9-x-10-x-x-12-12-x-x-x-x-
------------------------------------

Tim plays Figure 2 - 6 more times

Tim
------------------------------------
------------------------------------
------------------------------------
-x-5-x-x-7-7-x--9-x-x-11-11-x-x-x-x-
-x-7-x-x-9-9-x-10-x-x-12-12-x-x-x-x-
------------------------------------

Tim
-------------------------------12--12-
-----------------------------------12-
--------------------------------------
-x-5-x-x-7-7-x--9-x-x-11-11-11--------
-x-7-x-x-9-9-x-10-x-x-12-12-12--------
--------------------------------------


.....and I see no faith that I have won.....


Dave - Figure 1 - 2 times with

Tim
----------------------------------------
----------------------------------------
----------------------------------------
-x-5-x-x-7-7-x--9-x-x-11-11-11-11-11-11-
-x-7-x-x-9-9-x-10-x-x-12-12-12-12-12-12-
----------------------------------------

Tim
------------------------------------
------------------------------------
------------------------------------
-x-5-x-x-7-7-x--9-x-x-11--11-11-x-x-
-x-7-x-x-9-9-x-10-x-x-12--12-12-x-x-
------------------------------------

Tim
------------------------------------
------------------------------------
------------------------------------
-x-5-x-x-7-7-x--9-x-x-11--11-11-x-x-
-x-7-x-x-9-9-x-10-x-x-12--12-12-x-x-
------------------------------------

Tim
------------------------------
------------------------------
------------------------------
-x-5-x-x-7-7-x--9-x-x-11------
-x-7-x-x-9-9-x-10-x-x-12------
------------------------------


Guitar Solo - Tim Reynolds

Dave play Figure 1 - 9 times

-------------------------------------------------------------------
-------------------------------------------------------------------
5-4-3-4-5-4-3-4--5-4-3-4-5-4-3-4--5-4-3-4-5-4-3-4--5-4-5-4-3-4-5-4-
-------------------------------------------------------------------
-------------------------------------------------------------------
-------------------------------------------------------------------

-------------------------------------------------------------------
-------------------------------------------------------------------
5-4-3-4-5-4-3-4--5-4-3-4-5-4-3-4--5-4-5-4-3-4-5-4--5-4-3-4-5-4-3-4-
-------------------------------------------------------------------
-------------------------------------------------------------------
-------------------------------------------------------------------

-------------------------------------------------------------------
-------------------------------------------------------------------
5-4-3-4-5-4-3-4--5-4-3-4-5-4-3-4--5-4-5-4-3-4-5-5--4-4-3-4-5-4-3-4-
-------------------------------------------------------------------
-------------------------------------------------------------------
-------------------------------------------------------------------

--------------------------
--------------------------
5-4-3-4-5-4-3-4--5-3------
--------------------------
--------------------------
--------------------------

--6-7-8-7-6-7-8-7-6-7-8-7-8-6-7-8-787878-6-7-8-7-6-7-
-----------------------------------------------------
-----------------------------------------------------
-----------------------------------------------------
-----------------------------------------------------
-----------------------------------------------------

8-7-8-7-6-7-8-7--8-7-6-7-8-7-6-7--8-7-6-7-8-7-6-7--8-7-6-7-8-7-6-7-
-------------------------------------------------------------------
-------------------------------------------------------------------
-------------------------------------------------------------------
-------------------------------------------------------------------
-------------------------------------------------------------------

8-7-6-7-8-7-6-7--8-7-6-7-8-7-6-7--8-7-6-7-8-7-6-7--8-7-6-7-8-7-6-7-
-------------------------------------------------------------------
-------------------------------------------------------------------
-------------------------------------------------------------------
-------------------------------------------------------------------
-------------------------------------------------------------------

8-7-6-7-8-7-6-7-8-6------
-------------------------
-------------------------
-------------------------
-------------------------
-------------------------

***8 bars - rest L.H. finger on string and slide past fretboard

then

w/delay                                  (trem) w/delay
-----15---------------------- ---------------x~~~x---
---------12------------------ -----------------------
-----------14-12------------- -----------------------
-----------------14-12------- -----------------------
-----------------------14-12- -----------------------
----------------------------- -----------------------


Dave
Figure 3 (Dave only)                                 end Fig. 2
---------------------------- -----------------------------
---------------------------- -----------------------------
---9----8----7----6--------- -----------------------------
-9----9----9----9----------- ---------------------x-x-x-x-
---------------------------- ---7----6----5----4--x-x-x-x-
---------------------0--0-0- -7----7----7----7----x-x-x-x-
Tim              w/delay
-------------------~~x------ -----------------------------
---------------------------- -----------------------------
---------------------------- -----------------------------
---------------------------- -----------------------------
---------------------------- -----------------------------
---------------------------- -----------------------------


Dave plays Figure 3 - 2 times with

Tim (delay off)
-----------------10-9-7-10-9-7--------------
-10-8-7-10-8-7-----------------10-8-7-------
--------------------------------------9-7~4-
--------------------------------------------
--------------------------------------------
--------------------------------------------

Tim
-------------------- ------------------
-------------------- ------------------
-------------------- --2--4--6--7------
-------------------- --4--6--7--8------
---7----6----5----4- ------------------
-7----7----7----7--- ------------------

Tim
-----------8---------------
---9---------0-11-----H----
---------7--------10-8-10--
-7-------------------------
---------------------------
---------------------------


Verse 3

Well you may find you're.......

Dave & Tim - play Figure 1 then

Tim plays Figure 2 - 2 times with

Dave                                              (trem)
---------------------------- -----------------------7--
---------------------------- --------------------------
---------------------------- ---0----0----0----0-------
---------------------------- ---------------------x----
---7----6----5----4--------- ---7----6----5----4--x----
-7----7----7----7----x--x-x- -7----7----7----7----x----

then Dave plays Figure 1


then Dave plys Figure 1 - 5 times with


Tim - Figure 2 then

Tim
----------------------------
----------------------------
----------------------------
----------------------------
---7----6----5----4---------
-7----7----7----7----x--x-x-

then Tim plays Figure 1 - 4 times

Dave
----------------------------
----------------------------
----------------------------
----------------------------
---7----6----5----4---------
-7----7----7----7----x--x-x-
Tim
----------------------------
----------------------------
----------------------------
-----------11-11-11-11-11-x-
-----7xx10x12-12-12-12-12-x-
0--0------------------------

Dave
----------------------------
----------------------------
----------------------------
----------------------------
---7----6----5----4---------
-7----7----7----7-----------
Tim
----------------------------
----------------------------
----------------------------
-x-5--x-7--x-9--x11---------
-x-7--x-9--x10--x12---------
----------------------------

Dave
----------------------------
----------------------------
----------------------------
----------------------------
---7----6----5----4---------
-7----7----7----7-----------
Tim
----------------------------
----------------------------
----------------------------
-x-5--x-7-7-x-9-x-11--------
-x-7--x-9-9-x10-x-12--------
----------------------------

Dave
----------------------------
----------------------------
----------------------------
----------------------------
---7----6----5----4---------
-7----7----7----7-----------
Tim
----------------------------
----------------------------
----------------------------
----------------------------
---7----6----5----4---------
-7----0----7----7-----------




The End


Scott Taylor
School of Music
The Florida State University
http://www.geocities.com/sequenzax
AOL IM: tromba1B
"Eat, drink, and be merry, for tomorrow we shall die." - Epicurus
Добавлено: 01.03.2012
Другие материалы по этой песне:

Страница создана 25.02.2012
http://primanota.ru/dave-matthews-band/deed-is-done-chords.htm
Привет, Гость.
Предлагаем пройти революционный курс по гитаре.
Подарок от PrimaNota.Ru, забирай!