PrimaNota.ru - самый крупный в мире бесплатный архив песенных текстов, аккордов, табулатур и нот


Dave Matthews Band - Broken Things - таба, видео

Регистрация Запомнить меня
Войти через:  Facebook Google Twitter Vk Yandex Mail.ru

Dave Matthews Band - Broken Things - таба, видео

Печатать
Просмотров: 76
Авторы музыки: Dave Matthews, John Alagia

-----------------------------------------------------------------------
                             Broken Things - Dave Matthews Band 
-----------------------------------------------------------------------------
Tabbed by: Israel Tabadi
E-mail: israel.tabadi@gmail.com

Tuning: Standard

The Song consists of 4 parts:
(1)intro/fill
(2)Verse
(3)Chorus
(4)Chorus Ending


intro/fill between verses

e|---------------------------------------------------------------------------|
B|---------------------------------------------------------------------------|
G|-------------------7~------------------------------------------------------|
D|-------5------7~---7~---------------------  X4  ---------------------------|
A|--5/7-----7--------5~------------------------------------------------------|
E|---------------------------------------------------------------------------|


Verse (The timing is very similar to Gray Sreet/Trippin Billies)

e|---------------------------------------------------------------------------|
B|---------------------------------------------------------------------------|
G|--7----6----4----2----4----6-----------------------------------------------|
D|--X----X----X----X----X----X--------------  X4  ---------------------------|
A|--5----4----2----0----2----4-----------------------------------------------|
E|--7----5----3----2----3----5-----------------------------------------------|


Chorus

e|-(5)-------(5)-------------------------------------------------------------|
B|--3----3----2--------------------------------------------------------------|
G|--0----0----2--------------------------------------------------------------|
D|--4----4----2-----------------------------  X2  ---------------------------|
A|--5----2----0--------------------------------------------------------------|
E|---------------------------------------------------------------------------|


Chorus Ends with:

e|---------------------------------------------------------------------------|
B|--8---------1---------3----3-----------------------------------------------|
G|--7---------0---------0----2-----------------------------------------------|
D|--5---------2---------0----0--------------  X2  ---------------------------|
A|--7---------3---------X----X-----------------------------------------------|
E|----------------------3----2-----------------------------------------------|



************************************

| /   slide up
| \   slide down
| h   hammer-on
| p   pull-off
| ~   vibrato
| +   harmonic
| x   Mute note
| b   Bend
| pb  Pre-bend
| br  Bend release
| pbr Pre-bend release
| brb Bend release bend

************************************
Добавлено: 06.10.2013
Другие материалы по этой песне:
  • Аккорды и текст

Страница создана 06.10.2013
http://primanota.ru/dave-matthews-band/broken-things-chords.htm
Привет, Гость.
Предлагаем пройти революционный курс по гитаре.
Подарок от PrimaNota.Ru, забирай!