PrimaNota.ru - самый крупный в мире бесплатный архив песенных текстов, аккордов, табулатур и нот


Dave Matthews Band - An' Another Thing - текст песни, таба, видео

Регистрация Запомнить меня
Войти через:  Facebook Google Twitter Vk Yandex Mail.ru

Dave Matthews Band - An' Another Thing - текст песни, таба, видео

Печатать
Просмотров: 116
Авторы музыки: Dave Matthews
Авторы текста: Dave Matthews
"An' Another Thing" 

Dave Matthews 
Some Devil 


Intro/Verse/etc 

--------- ----------- 
--------- ----------- 
--11----- --4-------- 
--10----- --5-------- 
---9----- --6-------- 
---8----- --7-------- 


Chorus 

------- -------- -------- ----------- 
--8---- ---8---- -------- ----------- 
--0---- ---0---- --11---- --7----7--- 
--9---- ---9---- ---0---- --0----0--- 
--7---- -------- -------- ----------- 
------- ---8---- --10---- --7----6--- 


ends on 
--------- 
--------- 
--------- 
----9---- 
----7---- 
----0---- 


Scott Taylor 
wonderboymusic@yahoo.com 
IM: tromba1b 
Florida State University 

     
Добавлено: 27.07.2013
Другие материалы по этой песне:
  • Аккорды и текст

Страница создана 28.07.2012
http://primanota.ru/dave-matthews-band/an-another-thing-chords.htm
Привет, Гость.
Предлагаем пройти революционный курс по гитаре.
Подарок от PrimaNota.Ru, забирай!