PrimaNota.ru - самый крупный в мире бесплатный архив песенных текстов, аккордов, табулатур и нот


Dave Matthews Band - 41 Live - таба, видео

Регистрация Запомнить меня
Войти через:  Facebook Google Twitter Vk Yandex Mail.ru

Dave Matthews Band - 41 Live - таба, видео

Печатать
Просмотров: 85
This is the way Dave plays it live...

standard tunning

INTRO:4X
-----(0)------(0)------------------x------------------|
-----(0)------(0)-------8-8------3-x----3---3---------|
----5-5------7-7-------4--4------0-x---0h4--0---------|
---2--2-----4--4------5---5------4-x----0--0h4--------|
--3---3----5---5-----7----7----5---x--5-----5---------|
-5----5---7----7---(0)-------------x------------------|

VERSE:
------------------------------------------------------|
----8x88x---8-----8x88x---8----8x88x---8---8x88---8---|
----7x77x---7-----7x77x---7----7x77x---7---7x77---7---|
------------------------------------------------------|
-----------------------------7-------7----5-----5-----|
-5--------5----7--------7-----------------------------|

CHORUS:(listen to song for strumming)
-x---x---x--------------------------------------------|
-x---3---x--------------------------------------------|
-4---2---9--------------------------------------------|
-x---x---10-------------------------------------------|
-2---x---10-------------------------------------------|
-3---2---8--------------------------------------------|

JAM: (basically the intro with strumming)
-x----x----X---(0)------------------------------------|
-x----x----8----3-------------------------------------|
-5----7----4----0-------------------------------------|
-2----4----5----4-------------------------------------|
-3----5----7----5-------------------------------------|
-5----7---(0)---x-------------------------------------|

ENDING:
-10--x---7-8-7---5--5-5-5-5-5-------------------------|
-8---x---8-8-8---8--7-8-7-8-7-------------------------|
-7---x---7-7-7---7--7-7-7-7-7-------------------------|
-x---x---x-x-x---x--x-x-x-x-x-------------------------|
-x---x---x-x-x---x--x-x-x-x-x-------------------------|
-x---x---x-x-x---x--x-x-x-x-x-------------------------|

-10--x---7-8-10-8-7-8-7---5-5-5-5-5----10-------------|
-8---x---8-8-8--8-8-8-8---7-8-7-8-7----8--------------|
-7---x---7-7-7--7-7-7-7---7-7-7-7-7----7--------------|
-x---x---x-x-x--x-x-x-x---x-x-x-x-x----x--------------|
-x---x---x-x-x--x-x-x-x---x-x-x-x-x----x--------------|
-x---x---x-x-x--x-x-x-x---x-x-x-x-x----x--------------|
Добавлено: 15.07.2013
Другие материалы по этой песне:
  • Аккорды и текст

Страница создана 15.07.2013
http://primanota.ru/dave-matthews-band/41-live-chords.htm
Привет, Гость.
Предлагаем пройти революционный курс по гитаре.
Подарок от PrimaNota.Ru, забирай!