PrimaNota.ru - самый крупный в мире бесплатный архив песенных текстов, аккордов, табулатур и нот


Dave Loggins - Sunset Woman - аккорды и текст, видео

Регистрация Запомнить меня
Войти через:  Facebook Google Twitter Vk Yandex Mail.ru

Dave Loggins - Sunset Woman - аккорды и текст, видео

Печатать
Просмотров: 81
Sunset Woman
Dave Loggins
SONG:   SUNSET WOMAN
ARTIST: DAVE LOGGINS
TAB BY: DON CZARSKI
EMAIL:  GUITARZAN7@HOTMAIL.COM
VIDEO:  http://youtu.be/BK_UPH4qF6c

                     SUNSET WOMAN
                     DAVE LOGGINS


CAPO: 2nd FRET

Hmmm, OK, give me a count Steve
I can't do that
OK, uh one, uh two, one, two, three, four

INTRO:  D

VERSE:
 D
Long haired harlot
                 G  D
Now she comes a dancin'
          G
Eyes on chancin'
            D
I know her kind

  D
Ribbons of scarlet
                 G    D
I've seen 'em entangalin'
                A
And wrappin' around
             D
A poor boys mind


CHORUS:
        G D
Sunset woman
         G    D
Nobody needs you
                    G
You're a worthless woman
                     D
An agin' overnight friend

        G D
Sunset woman
         G   D
Nobody needs to
     A
Be drowned
                         D   A  D
In your wishin' well of sin


VERSE:
 D
Rock 'n' Roll tavern
                   G        D
She's just like a fixture there
            G
Looking to pull a stare
                     D
From the 5 o'clock crowd

 D
Finding no takers
                 G D
For yesterday's papers
      A
She leaves, 
                         D
And takes the back door out


CHORUS:
        G D
Sunset woman
         G    D
Nobody needs you
                     G
You're a worthless woman
                                 D
You're just an aging overnight friend.

        G D
Sunset woman
         G   D
Nobody needs to
     A
Be drowned
                         D
In your wishing well of sin


INSTRUMENTAL: (VERSE CHORDS)

D    G D   G   D
D    G D   A   D

SOLO:

E ------------2-5-5/7-5h7-5-----------------------------
B ---2h3-3--3---------------7br-7-5-3-3---5-3-----------
G -2------------------------------------------4-4-4\2---
D ------------------------------------------------------
A ------------------------------------------------------
E ------------------------------------------------------


E ----------------10-10-10----2-3/5-5/7-9-10--5---------
B --5h7p5--7h10p7-----------3---------------------------
G ------------------------------------------------------
D ------------------------------------------------------
A ------------------------------------------------------
E ------------------------------------------------------


E ------------------------------------------------------
B -----5-7-5-5--5-7-8-7-5-3-3---------------------------
G --7---------------------------------------------------
D ------------------------------------------------------
A ------------------------------------------------------
E ------------------------------------------------------

 
BREAK:
D                            G
Ah, but Lord those mistress eyes in disbelief
             D
As she was leaving
                                                           
Her youth was burned, 

The heads she once turned, 
                A
Well,they were gone
                            G
Ah, but Lord, give her my smile 
                               D
And my coat, two souls worth saving
            A                           D
And see for me, she finds her way back home
 
 
CHORUS:
        G D
Sunset woman
         G    D
Nobody needs you
                    G
You're a worthless woman
                      D
An aging, overnight friend
          G D
A sunset woman
        G    D
Nobody needs to
     A
Be drowned
                         D
In your wishing well of sin
 
 
OUTRO:
     A
Be drowned
                         D
In your wishing well of sin
                   
Nobody neeeds to be no
  A                               D
Drowned, in your wishing well of sin


=================== NO CAPO ====================

SONG:   SUNSET WOMAN
ARTIST: DAVE LOGGINS
TAB BY: DON CZARSKI
EMAIL:  GUITARZAN7@HOTMAIL.COM
VIDEO:  http://youtu.be/BK_UPH4qF6c

                     SUNSET WOMAN
                     DAVE LOGGINS


Hmmm, OK, give me a count Steve
I can't do that
OK, uh one, uh two, one, two, three, four

INTRO:  E

VERSE:
 E
Long haired harlot
                 A  E
Now she comes a dancin'
          A
Eyes on chancin'
            E
I know her kind

  E
Ribbons of scarlet
                 A    E
I've seen 'em entangalin'
                B
And wrappin' around
             E
A poor boys mind


CHORUS:
        A E
Sunset woman
         A    E
Nobody needs you
                    A
You're a worthless woman
                     E
An agin' overnight friend

        A E
Sunset woman
         A   E
Nobody needs to
     B
Be drowned
                         E   B  E
In your wishin' well of sin



VERSE:
 E
Rock 'n' Roll tavern
                   A        E
She's just like a fixture there
            A
Looking to pull a stare
                     E
From the 5 o'clock crowd

 E
Finding no takers
                 A E
For yesterday's papers
      B
She leaves, 
                         E
And takes the back door out



CHORUS:
        A E
Sunset woman
         A    E
Nobody needs you
                     A
You're a worthless woman
                                 E
You're just an aging overnight friend.


        A E
Sunset woman
         A   E
Nobody needs to
     B
Be drowned
                         E   
In your wishing well of sin


INSTRUMENTAL: (VERSE CHORDS)

E    A E   A   E
E    A E   B   E


SOLO:

E ------------4-7-7/9-7h9-7-----------------------------
B ---4h5-5--5---------------9br-9-7-5-5---7-5-----------
G -4------------------------------------------6-6-6\4---
D ------------------------------------------------------
A ------------------------------------------------------
E ------------------------------------------------------


E ----------------12-12-12----4-5/7-7/9-11-12--7--------
B --7h9p7--9h12p9-----------5---------------------------
G ------------------------------------------------------
D ------------------------------------------------------
A ------------------------------------------------------
E ------------------------------------------------------


E ------------------------------------------------------
B -----7-9-7-7--7-9-10-9-7-5-5--------------------------
G --9---------------------------------------------------
D ------------------------------------------------------
A ------------------------------------------------------
E ------------------------------------------------------

 
BREAK:
E                            A
Ah, but Lord those mistress eyes in disbelief
             E
As she was leaving
                                                           
Her youth was burned, 

The heads she once turned, 
                B
Well,they were gone
                            A                                 
Ah, but Lord, give her my smile 
                               E
And my coat, two souls worth saving
            B                           E
And see for me, she finds her way back home
 
 
CHORUS:
        A E
Sunset woman
         A    E
Nobody needs you
                    A
You're a worthless woman
                      E
An aging, overnight friend
          A E
A sunset woman
        A    E
Nobody needs to
     B
Be drowned
                         E
In your wishing well of sin
 
 
OUTRO:
     B
Be drowned
                         E
In your wishing well of sin
                   
Nobody neeeds to be no
  B                               E
Drowned, in your wishing well of sin



Добавлено: 16.12.2015
Другие материалы по этой песне:
  • Аккорды и текст

Страница создана 08.05.2012
http://primanota.ru/dave-loggins/sunset-woman-chords.htm
Привет, Гость.
Предлагаем пройти революционный курс по гитаре.
Подарок от PrimaNota.Ru, забирай!