PrimaNota.ru - самый крупный в мире бесплатный архив песенных текстов, аккордов, табулатур и нот


Dave Grohl - If I Were Me - таба, видео

Регистрация Запомнить меня
Войти через:  Facebook Google Twitter Vk Yandex Mail.ru

Dave Grohl - If I Were Me - таба, видео

Печатать
Просмотров: 253
From the Sound City Soundtrack

This is just the first part of the song, will post more later when I get the rest 
figured out unless someone else beats me to it.  Feel free to email other portions 
vancampdan@hotmail.com

Standard tuning

s=Slide
<> = Harmonics


e|-----------------------------------------------------------|
B|-------------------------------------------------<12>------|
G|----<12>----------<12>------------<12>-----------<12>------|
D|----<12>----------<12>------------<12>---------------------|
A|------------9--------------9--------------9----------------|
E|-0------3s7--7-0-------3s7--7-0-------3s7---7-0------------|


e|-----------------------------------------------------------| _
B|-----------------------------------------------------------|  |
G|----<12>----------<12>------------<12>-----------<12>------|  |
D|----<12>----------<12>------------<12>-----------<12>------|  |
A|------------9--------------9--------------9----------------|  |
E|-0------3s7--7-0-------3s7--7-0-------3s7---7-0------------|  |
                                                                |
                                                                |
e|---------------------------<12>----------------------------|  |
B|-----------<12>------------<12>----------------------------|  |
G|-----------<12>--------------------------------------------|   }X2
D|---------------------9---------------12--------------------|  |
A|-----9--0--------3s7--7---------3s10-----------------------|  |
E|-3s7--7----------------8-----------------------------------|  |
                                                                |
                                                                |
e|-----------------------------------------------------------|  |
B|---------------------------------------------------------|-|  |
G|----<12>----------<12>------------<12>---------------------| _|
D|----<12>----------<12>------------<12>---------------------|  
A|------------9--------------7-9-----------------------------|  
E|-0------3s7--7-0-------3s7-----0---------------------------| 
Добавлено: 16.10.2013
Другие материалы по этой песне:
  • Аккорды и текст

Страница создана 07.07.2013
http://primanota.ru/dave-grohl/if-i-were-me-chords.htm
Привет, Гость.
Предлагаем пройти революционный курс по гитаре.
Подарок от PrimaNota.Ru, забирай!