PrimaNota.ru - самый крупный в мире бесплатный архив песенных текстов, аккордов, табулатур и нот


Dave Evans - Stagefright - таба, видео

Регистрация Запомнить меня
Войти через:  Facebook Google Twitter Vk Yandex Mail.ru

Dave Evans - Stagefright - таба, видео

Печатать
Просмотров: 83
-------------------------------------------------------------------------------
                             Stagefright - Dave Evans
-------------------------------------------------------------------------------
Tabbed by: JClarkey97
E-mail: jackclarke9707@hotmail.co.uk

Hi everyone :)

I tried looking everywhere for this tab and couldn't find it so, I thought, why
not learn it by ear? So I have done that and tabbed it for all you eager musicians.

This version is off The Old Grey Whistle Test found here: https://www.youtube.com/watch?v=zqTLkgImAdU

I done all of this by both Ear and Vision. Sorry if it's not 100% accurate.
Feel free to correct me in the comments below.

Enjoy :).

Note: The X's indicate when Dave Evans slaps the strings with his picking hand.

Note 2: There is a part in the tab where it has 3p2p0 and in the video, I saw Dave Evans
Move his fingers over those frets but no sound was produced so I thought I would put it in there anyway

Tuning: Open Dsus4 (DADGAD)

D -----x-------x------x----------|
A -----x-------x------x---2p0----|
G -----x--2----x------x--0---0h2-|
D -0h4-4---4p0-x-0----x-2--------|
A -----x-------x--0h4-x----------|
D -----x-------x------x----------|

D -----x-------x-------x---------|
A -----x-------x-------x-------0-|
G -----x--2----x-------x---------|
D -0h4-4---4p0-x-0-----x-2-------|
A -----x-------x---0h4-x---4p0---|
D -----x-------x-------x---------|

D -----x-------x------x----------|
A -----x-------x------x---2p0----|
G -----x--2----x------x--0---0h2-|
D -0h4-4---4p0-x-0----x-2--------|
A -----x-------x--0h4-x----------|
D -----x-------x------x----------|


D -----x-------x-------x---------|
A -----x-------x-------x-------0-|
G -----x--2----x-------x---------|
D -0h4-4---4p0-x-0-----x-2-------|
A -----x-------x---0h4-x---4p0---|
D -----x-------x-------x---------|

D -------------------------|
A --------------------0----|
G ---0--0---0--0---0---0---|
D --4-4----4-4----2-2----2-|
A ---------------4---------|
D -0------0----------------|

D -------------------------|
A --------------------0----|
G ---0--0---0--0---0---0---|
D --4-4----4-4----2-2----2-|
A ---------------4---------|
D -0------0----------------|

D ------0------------------|
A -----4-4-0---------------|
G ----4---4-0----0------0--|
D ------------0h4-4--0h4-4-|
A -------------------------|
D -3/5--------------0------|

D ------0------------------|
A -----4-4-0---------------|
G ----4---4-0----0------0--|
D ------------0h4-4--0h4-4-|
A -------------------------|
D -3/5--------------0------|

D ---------------0--------------------0-----------------|
A ---0----0-----4-4-0-----0----0-----4-4-0---------0----|
G --4-4--4-0---4---4-0---4-0--4-0---4---4-0----0----0---|
D ------------4--------------------4----------2--2----2-|
A -4----0---------------4----0---------------4----------|
D ------------------------------------------------------|

D ----------------------------|
A -----------------------0----|
G ----0--0----0--0---0----0---|
D -0h4-4---0h4-4----2--2----2-|
A -----------------4----------|
D -0-------0------------------|

D --------------------------------|
A --------------------------------|
G ----0-0-----0-0-----0-0-----0-0-|
D -0h4-4---0h4-4---0h4-4---0h4-4--|
A --------------------------------|
D -0-------0-------0-------0------|

D ------0--------0----------|
A -----0--0--------2p0---0--|
G ----0--2-2----------0h2-2-|
D -0h4----------------------|
A -----------0h2------------|
D -0------------------------|

D ------0--------0----------|
A -----0--0--------2p0---0--|
G ----0--2-2----------0h2-2-|
D -0h4----------------------|
A -----------0h2------------|
D -0------------------------|

D -4-x---0----------0----------4-x---0--------0---------|
A -5-x--4-4----------2p0---0---5-x-4-----------2p0---0--|
G -7-x-6---2=p0---------0h2-2--7-x----2=p0--------0h2-2-|
D ---x---------------------------x----------------------|
A ---x----------0h2--------------x--------0h2-----------|
D ---x---------------------------x----------------------|

D -10---9-------7----------------0-----------0---------|
A -12--10----7h9-9p7----5----3--3-3-2p0-------2p0---0--|
G -11---9---7-------7--7---5--5--------0h2-------0h2-2-|
D -(0)-(0)-----(0)------0-----0------------------------|
A -----------------------------------------2-----------|
D ----0----0----------0----0---------------------0-----|

D -10---9-------7----------------0-----------0---------|
A -12--10----7h9-9p7----5----3--3-3-2p0-------2p0---0--|
G -11---9---7-------7--7---5--5--------0h2-------0h2-2-|
D -(0)-(0)-----(0)------0-----0------------------------|
A -----------------------------------------2-----------|
D ----0----0----------0----0---------------------0-----|

D -0-x-0-x-----------------0-x-0-x---------------|
A -0-x-0-x-----------------0-x-0-x-------------0-| < I think those last two
G -0-x-0-x-0---0--0---0--0-0-x-0-x-0---0--0----0-| < notes Dave Played were a mistake.
D -3-x-2-x--0h4-4--0h4-4---3-x-2-x--0h4-4--0h4---|
A -3-x-2-x-----------------3-x-2-x---------------|
D ---x---x-0------0----------x---x-0------0------|

D -0-x-0-x-----------------0-x-0-x---------------------------------|
A -0-x-0-x-----------------0-x-0-x---------------------------------|
G -0-x-0-x-0---0--0---0--0-0-x-0-x-0---0--0----0-0-----0-0-----0-0-|
D -3-x-2-x--0h4-4--0h4-4---3-x-2-x--0h3-3---0h3-3---0h3-3---0h3-3--|
A -3-x-2-x-----------------3-x-2-x---------------------------------|
D ---x---x-0------0----------x---x-0--------0-------0-------0------|

D --1p0-0----------------------|
A -3---3---1p0-0---------------|
G --------3---3---1p0-0--------|
D ---------------3---3---1p0-0-|
A ----------------------3---3--|
D -----------------------------|

D --1p0-0----------------------|
A -3---3---1p0-0---------------|
G --------3---3---1p0-0--------|
D ---------------3---3---1p0-0-|
A ----------------------3---3--|
D -----------------------------|

D --7p0-0------------------------------------------------2p0-0-|
A -9---9---7p5-0---------------------------------2p0-0--4---4--|
G --------6---6---7p0-0------------------2p0-0--4---4----------|
D ---------------9---9---7p0-0---2p0-0--4---4------------------|
A ----------------------9---9---4---4--------------------------|
D -------------------------------------------------------------|

D ----------------------------------0----------0----------0---------0----|
A ----------------------------------0----------0----------0---------0----|
G ----0--0---0--0---0--0---0-----2--2-2-----2--2-2-----2--2-2----2--2-2--|
D -0h4-4--0h4-4--0h4-4--0h4-4---0-0-0--0---0-0-0--0---0-0-0--0--0-0-0--0-|
A ----------------------------------0----------0----------0---------0----|
D -------0------0------0-------0----0-----0----0-----0----0----0----0----|

D -------------------0-------3----------------------------------------0-------0-0--|
A -9-----9---9--------0------3-----------3h5/7b9r7--------0-----------0-------0-0--|
G -11----11-11b12r11---0-----3--3-------3----------2-----0-0-0--------0-------0-0--|
D -0-----0---0------------3--3-3--3----3-----------0--0h3---3---------5--5----8-10-|
A -0-----0---0---------------3------3h5---------------------------5-5-5-------8-10-|
D -0-0-0-0-0-0-----------3-3-3---3-3---------0--------0---------4/5-5-5-5-5/8-8-10-|

D -------------------0-------3------------------------------------------0----0----|
A -9-----9---9--------0------3-----------3h5/7b9r7--------0-------------0----0----|
G -11----11-11b12r11---0-----3--3-------3----------2-----0-0-0----------0----0----|
D -0-----0---0------------3--3-3--3----3-----------0--0h3---3-----------5--5-3-2--|
A -0-----0---0---------------3------3h5-----------------------------5-5-5----3-2--|
D -0-0-0-0-0-0-----------3-3-3---3-3---------0--------0---------4/5-5-5-5-5--3-2--|

D -------------------0-------3----------------------------------------0-------0-0--|
A -9-----9---9--------0------3-----------3h5/7b9r7--------0-----------0-------0-0--|
G -11----11-11b12r11---0-----3--3-------3----------2-----0-0-0--------0-------0-0--|
D -0-----0---0------------3--3-3--3----3-----------0--0h3---3---------5--5----8-10-|
A -0-----0---0---------------3------3h5---------------------------5-5-5-------8-10-|
D -0-0-0-0-0-0-----------3-3-3---3-3---------0--------0---------4/5-5-5-5-5/8-8-10-|

D -----0-----------0---0--|
A -----0-----------0---0--|
G -----0-----------0---0--|
D -8-8-8--8-8-8-8--8--10--|
A -8-8-8--8-8-8-8--8--10--|
D -8-8-8--8-8-8-8--8--10--|

D -----0-----------0---0-|
A -----0-----------0---0-|
G -----0-----------0---0-|
D -8-8-8--8-8-8-8--8--10-|
A -8-8-8--8-8-8-8--8--10-|
D -8-8-8--8-8-8-8--8--10-|

D -0--0-0--0-0--0-0--0-0-0--*7---------|
A -0--0-0--0-0--0-0--0-0-0--*7---------|
G -0--0-0--0-0--0-0--0-0-0--*7---------|
D -8--8-8--8-8--8-8--8-8-8--*7---------|
A -8--8-8--8-8--8-8--8-8-8--*7---------|
D -8--8-8--8-8--8-8--8-8-8--*7-0-0-0-0-|

D -------------0---------------------|
A --8---3==/5----5------------3p0----|
G -10---5==/7----7---0---0---0-------|
D --0---0===0----0----0h3-0h3----3/5-|
A --0---0===0----0-------------------|
D ----0---0---0-----0----------------|

D --------------------------------------|
A ---5----8----3==/5---5----------3p0---|
G ---7---10----5==/7---7-----0---0---0--|
D ---0-0--0----0===0---0--0h3-0h3-----3-|
A ---0----0----0===0---0----------------|
D -0----0---0----0---0---0--------------|

D ------------3p2p0-3p2p0-2--------0------------------------0---3p2p0-------2--|
A -----5---------------------------0--0------3p0------------0---------3p2p0----|
G -----7-----------0-----0---------4-4------0---0-----------4------------------|
D --0--0--0-0----------------------5-----0h3-----3----------5--5-----0---------|
A -----0---------------------------5------------------------5------------------|
D -0-0---0-0-----------------3/5-5-5----------------3/5-5-5-5----------------0-|

D -----0-----------------0----------|
A -----0-----------------0----------|
G -----2---0----0-0------2----0---0-|
D -----------0h3-3-3-----------0h2--|
A -------------------------0h2------|
D -0-0---0-----------0-0------------|

D -------0------0----0-0----0--0-0--0-0-0-0--0-0-0-|
A -------0------0----0-0----0--0-0--0-0-0-0--0-0-0-|
G -------6------6----4-4-4--4--4-4--2-2-2-2--0-0-0-|
D -------7--7-7-7--7-5-5-5--5--5-5--3-3-3-3--2-2-2-|
A -------7------7----5-5-5--5--5-5--3-3-3-3--2-2-2-|
D -5/7-7-7-7-7--7-7--5-5-5--5--5-5--3-3-3-3--2-2-2-|

D -------------------0-------3----------------------------------------0-------0-0--|
A -9-----9---9--------0------3-----------3h5/7b9r7--------0-----------0-------0-0--|
G -11----11-11b12r11---0-----3--3-------3----------2-----0-0-0--------0-------0-0--|
D -0-----0---0------------3--3-3--3----3-----------0--0h3---3---------5--5----8-10-|
A -0-----0---0---------------3------3h5---------------------------5-5-5-------8-10-|
D -0-0-0-0-0-0-----------3-3-3---3-3---------0--------0---------4/5-5-5-5-5/8-8-10-|

D -----0-----------0---0-|
A -----0-----------0---0-|
G -----0-----------0---0-|
D -8-8-8--8-8-8-8--8--10-|
A -8-8-8--8-8-8-8--8--10-|
D -8-8-8--8-8-8-8--8--10-|

D -----0-----------0---0-|
A -----0-----------0---0-|
G -----0-----------0---0-|
D -8-8-8--8-8-8-8--8--10-|
A -8-8-8--8-8-8-8--8--10-|
D -8-8-8--8-8-8-8--8--10-|

D -0--0-0--0-0--0-0--0-0-0--*7---------|
A -0--0-0--0-0--0-0--0-0-0--*7---------|
G -0--0-0--0-0--0-0--0-0-0--*7---------|
D -8--8-8--8-8--8-8--8-8-8--*7---------|
A -8--8-8--8-8--8-8--8-8-8--*7---------|
D -8--8-8--8-8--8-8--8-8-8--*7-0-0-0-0-|

D -----x-------x------x----------|
A -----x-------x------x---2p0----|
G -----x--2----x------x--0---0h2-|
D -0h4-4---4p0-x-0----x-2--------|
A -----x-------x--0h4-x----------|
D -----x-------x------x----------|

D -----x-------x-------x---------|
A -----x-------x-------x-------0-|
G -----x--2----x-------x---------|
D -0h4-4---4p0-x-0-----x-2-------|
A -----x-------x---0h4-x---4p0---|
D -----x-------x-------x---------|

D -----x-------x------x----------|
A -----x-------x------x---2p0----|
G -----x--2----x------x--0---0h2-|
D -0h4-4---4p0-x-0----x-2--------|
A -----x-------x--0h4-x----------|
D -----x-------x------x----------|

D -----x-------x-------x---------|
A -----x-------x-------x-------0-|
G -----x--2----x-------x---------|
D -0h4-4---4p0-x-0-----x-2-------|
A -----x-------x---0h4-x---4p0---|
D -----x-------x-------x---------|


D -------------------------|
A --------------------0----|
G ---0--0---0--0---0---0---|
D --4-4----4-4----2-2----2-|
A ---------------4---------|
D -0------0----------------|

D -------------------------|
A --------------------0----|
G ---0--0---0--0---0---0---|
D --4-4----4-4----2-2----2-|
A ---------------4---------|
D -0------0----------------|

D ------0------------------|
A -----4-4-0---------------|
G ----4---4-0----0------0--|
D ------------0h4-4--0h4-4-|
A -------------------------|
D -3/5--------------0------|

D ------0------------------|
A -----4-4-0---------------|
G ----4---4-0----0------0--|
D ------------0h4-4--0h4-4-|
A -------------------------|
D -3/5--------------0------|


D ---------------0--------------------0-----------------|
A ---0----0-----4-4-0-----0----0-----4-4-0---------0----|
G --4-4--4-0---4---4-0---4-0--4-0---4---4-0----0----0---|
D ------------4--------------------4----------2--2----2-|
A -4----0---------------4----0---------------4----------|
D ------------------------------------------------------|


D ----------------------------|
A -----------------------0----|
G ----0--0----0--0---0----0---|
D -0h4-4---0h4-4----2--2----2-|
A -----------------4----------|
D -0-------0------------------|

D --------------------------------|
A --------------------------------|
G ----0-0-----0-0-----0-0-----0-0-|
D -0h4-4---0h4-4---0h4-4---0h4-4--|
A --------------------------------|
D -0-------0-------0-------0------|

D ------0--------0----------|
A -----0--0--------2p0---0--|
G ----0--2-2----------0h2-2-|
D -0h4----------------------|
A -----------0h2------------|
D -0------------------------|

D ------0--------0----------|
A -----0--0--------2p0---0--|
G ----0--2-2----------0h2-2-|
D -0h4----------------------|
A -----------0h2------------|
D -0------------------------|

D -4-x---0----------0----------4-x---0--------0---------|
A -5-x--4-4----------2p0---0---5-x-4-----------2p0---0--|
G -7-x-6---2=p0---------0h2-2--7-x----2=p0--------0h2-2-|
D ---x---------------------------x----------------------|
A ---x----------0h2--------------x--------0h2-----------|
D ---x---------------------------x----------------------|

D -10---9-------7----------------0-----------0---------|
A -12--10----7h9-9p7----5----3--3-3-2p0-------2p0---0--|
G -11---9---7-------7--7---5--5--------0h2-------0h2-2-|
D -(0)-(0)-----(0)------0-----0------------------------|
A -----------------------------------------2-----------|
D ----0----0----------0----0---------------------0-----|

D -10---9-------7----------------0-----------0---------|
A -12--10----7h9-9p7----5----3--3-3-2p0-------2p0---0--|
G -11---9---7-------7--7---5--5--------0h2-------0h2-2-|
D -(0)-(0)-----(0)------0-----0------------------------|
A -----------------------------------------2-----------|
D ----0----0----------0----0---------------------0-----|

D -0-x-0-x-----------------0-x-0-x-----------------|
A -0-x-0-x-----------------0-x-0-x-----------------|
G -0-x-0-x-0---0--0---0--0-0-x-0-x-0---0--0---0--0-|
D -3-x-2-x--0h4-4--0h4-4---3-x-2-x--0h4-4--0h4-4---|
A -3-x-2-x-----------------3-x-2-x-----------------|
D ---x---x-0------0----------x---x-0------0--------|

D -0-x-0-x-----------------0-x-0-x---------------------------------|
A -0-x-0-x-----------------0-x-0-x---------------------------------|
G -0-x-0-x-0---0--0---0--0-0-x-0-x-0---0--0----0-0-----0-0-----0-0-|
D -3-x-2-x--0h4-4--0h4-4---3-x-2-x--0h3-3---0h3-3---0h3-3---0h3-3--|
A -3-x-2-x-----------------3-x-2-x---------------------------------|
D ---x---x-0------0----------x---x-0--------0-------0-------0------|

D --1p0-0----------------------|
A -3---3---1p0-0---------------|
G --------3---3---1p0-0--------|
D ---------------3---3---1p0-0-|
A ----------------------3---3--|
D -----------------------------|

D --1p0-0----------------------|
A -3---3---1p0-0---------------|
G --------3---3---1p0-0--------|
D ---------------3---3---1p0-0-|
A ----------------------3---3--|
D -----------------------------|

                                   Tune high A up 1/2 a step on harmonic 7

D --7p0-0------------------------------------------------2p0-0----*12----*7--|
A -9---9---7p5-0---------------------------------2p0-0--4---4-----*12----*7--|
G --------6---6---7p0-0------------------2p0-0--4---4-------------*12----*7--|
D ---------------9---9---7p0-0---2p0-0--4---4---------------------*12----*7--|
A ----------------------9---9---4---4-----------------------------*12----*7--|
D ----------------------------------------------------------------*12----*7--|


************************************

| /   slide up
| \   slide down
| h   hammer-on
| p   pull-off
| ~   vibrato
| +   harmonic
| x   Mute note
| *   Natural Harmonic
| b   Bend
| pb  Pre-bend
| br  Bend release
| pbr Pre-bend release
| brb Bend release bend

************************************
Добавлено: 10.12.2015
Вам также может быть интересно:
Другие материалы по этой песне:
  • Аккорды и текст

Страница создана 10.12.2015
http://primanota.ru/dave-evans/stagefright-chords.htm
Привет, Гость.
Предлагаем пройти революционный курс по гитаре.
Подарок от PrimaNota.Ru, забирай!