PrimaNota.ru - самый крупный в мире бесплатный архив песенных текстов, аккордов, табулатур и нот


Dave Edmunds - I Hear You Knockin - таба, бас-таба, видео

Регистрация Запомнить меня
Войти через:  Facebook Google Twitter Vk Yandex Mail.ru

Dave Edmunds - I Hear You Knockin - таба, бас-таба, видео

Печатать
Просмотров: 97
E5
0 2 x x x x

E6
0 4 x x x x

A5
x 0 2 x x x

A6
x 0 4 x x x
B5
x 2 4 x x x

B6II
x 0 4 x x x

F#5
2 4 x x x x

F#6II
0 4 x x x x
Ebm/F#
2 6 x x x x

G#m/B
x 2 6 x x x

G/B
x 2 5 4 x x

G
3 2 x x x x
G#m
4 2 x x x x

Gtr I (E A D G B E) - 'Untitled'
Gtr II (E A D G B E) - 'Untitled'
Gtr III (E A D G B E) - 'Untitled'
Gtr IV (E B E G# B E) - 'Slide Guitar'
Gtr V (E A D G B E) - 'Untitled'

 Intro
  Q=103
 4/4
  Gtr I
  H.      E S    +S    +E    e H       E  E   S     +s  Q   S   +S  e E e   E
|--------------------|-------2--------------|---------------------------------|
|--------------------|-------------------10-|-----------------------5---------|
|-----------4pb6r(4)-|-(4)b6----------------|-9pb11r(9)-----4b6-(4)-----------|
|--------------------|----------------------|---------------------------4b5-2-|
|--------------------|----------------------|---------------------------------|
|--------------------|----------------------|---------------------------------|
|
| Gtr II
| W                     E    E E E E E E  E   E         E E E       E E E   E
|--------------------|----------------------|---------------------------------|
|--------------------|----------------------|---------------------------------|
|--------------------|----------------------|---------------------------------|
|--------------------|----------------------|-----------2---4---------2-----4-|
|--------------------|-------4---6---4----6-|-----------0---0---------0-----0-|
|--------------------|-------2---2---2----2-|---------------------------------|


                                            $
  Gtr I
   ~~~                   ~~~
  +Q.     E e   E e E   +H         H
|---------------------|---------------------|
|---------------------|---------------------|
|---------------------|---------------------|
|-(2)-------4b5-2---2-|-(2)-----------------|
|---------4-------4---|---------------------|
|---------------------|---------------------|
|
| Gtr II
|  E  E E E E   E E E    E  E E E  E  E Q
|---------------------|---------------------|
|---------------------|---------------------|
|---------------------|---------------------|
|---------------------|------------0--------|
|-----2---4-----2---4-|-----2---4--0--2-----|
|-----0---0-----0---0-|-----0---0-(0)-------|
|
| Gtr III
|  W                     H         E  E E E
|---------------------|---------------------|
|---------------------|---------------------|
|---------------------|---------------4-4-4-|
|---------------------|---------------4-4-4-|
|---------------------|---------------2-2-2-|
|---------------------|---------------------|


   Verse
    E E E     E E E E     E   E E E     E E E E     E
||--------------------------|--------------------------||
||o-------------------------|-------------------------o||
||--------------------------|--------------------------||
||----2-------2---2-------2-|---2-------2---2-------2--||
||o-----4b4.5-------4b4.5---|-----4b4.5-------4b4.5---o||
||--------------------------|--------------------------||
|
|   E E E     E E E E     E   E E E     E E E E     E
||--------------------------|--------------------------||
||o-------------------------|-------------------------o||
||--------------------------|--------------------------||
||--------------------------|--------------------------||
||o---2-------4---2-------4-|---2-------4---2-------4-o||
||----0-------0---0-------0-|---0-------0---0-------0--||
|
|   W                         W
||--------------------------|--------------------------||
||o-------------------------|-------------------------o||
||--------------------------|--------------------------||
||--------------------------|--------------------------||
||o-------------------------|-------------------------o||
||--------------------------|--------------------------||


  Gtr I
  E E  E E E E E  E    E E E E E E E E
|--------------------|-----------------|
|--------------------|-----------------|
|--------------------|-----------------|
|---2----4---2----4--|---2---4---2---4-|
|---0----0---0----0--|---0---0---0---0-|
|--------------------|-----------------|
|
| Gtr III
| E E  E E E E E  E    E E E E E E E E
|--------------------|-----------------|
|--------------------|-----------------|
|---2--2-2-2-2-2--2--|---2-2-2-2-2-2-2-|
|------4---5---4-----|-----4---5---4---|
|--------------------|-----------------|
|--------------------|-----------------|
|
| Gtr IV
|                 >
| E H.           +E    W
|-3s5------------(5)-|-----------------|
|-3s5------------(5)-|-----------------|
|-3s5------------(5)-|-----------------|
|--------------------|-----------------|
|--------------------|-----------------|
|--------------------|-----------------|


  Gtr II
   E  E  E     E E E E       E        E  E E     E E E E     E
|-------------------------------|-------------------------------|
|-------------------------------|-------------------------------|
|-------------------------------|-------------------------------|
|-------------------------------|-------------------------------|
|-----4--------2---4---------2--|--------4-------2---4-------2--|
|-----0--------0---0---------0--|--------0-------0---0-------0--|
|
| Gtr III
|  E  E  E     E E E E       E        E  E E     E E E E     E
|-------------------------------|-------------------------------|
|-------------------------------|-------------------------------|
|-------------------------------|-------------------------------|
|-----2--------2---2---------2--|--------2-------2---2-------2--|
|--------4b4.5-------4b4.5------|----------4b4.5-------4b4.5----|
|-------------------------------|-------------------------------|
|
|                            >
|  E  H.                    +E     a  H            H
|-10s12--------------------(12)-|-11s12\------------------------|
|-10s12--------------------(12)-|-11s12\------------------------|
|-10s12--------------------(12)-|-11s12\------------------------|
|-------------------------------|-------------------------------|
|-------------------------------|-------------------------------|
|-------------------------------|-------------------------------|


  Gtr I
  E E  E E E E E  E     E  E E  E E E E E
|--------------------|--------------------|
|--------------------|--------------------|
|--------------------|--------------------|
|---2----4---2----4--|-----2----4---2---4-|
|---0----0---0----0--|-----0----0---0---0-|
|--------------------|--------------------|
|
| Gtr III
| E E  E E E E E  E     E  E E  E E E E E
|--------------------|--------------------|
|--------------------|--------------------|
|---2--2-2-2-2-2--2--|-----2-2--2-2-2-2-2-|
|------4---5---4-----|-------4----5---4---|
|--------------------|--------------------|
|--------------------|--------------------|
|
| Gtr IV
|                       >
| E H.           +E    +Q    H.
|-3s5------------(5)-|-(5)----------------|
|-3s5------------(5)-|-(5)----------------|
|-3s5------------(5)-|-(5)----------------|
|--------------------|--------------------|
|--------------------|--------------------|
|--------------------|--------------------|


                                  D.S.
  E E E  E E E E E    E  E E  E E E E E
|------------------|--------------------|
|------------------|--------------------|
|------------------|--------------------|
|---4----6---4---6-|-----4----6---4---6-|
|---2----2---2---2-|-----2----2---2---2-|
|------------------|--------------------|
|
| E E E  E E E E E    E  E E  E E E E E
|------------------|--------------------|
|------------------|--------------------|
|---4-4--4-4-4-4-4-|-----4-4--4-4-4-4-4-|
|-----6----7---6---|--4----6----7---6---|
|------------------|--2-----------------|
|------------------|--------------------|
|
|                     >
| Q   H.             +Q    H.
|-5s==7------------|-(7)----------------|
|-5s==7------------|-(7)----------------|
|-5s==7------------|-(7)----------------|
|------------------|--------------------|
|------------------|--------------------|
|------------------|--------------------|


           E6           E5  E6          E5               E6        E5    E6      E5
  Gtr I
      E     E     E     E E E E         E          E     E   E     E E   E E     E
            |           |   |           |                |         |     |       |
            /           /   /           /                /         /     /       /

  Gtr II
                                                                           ~~~~~
      H                   E E S     +S  S   +S    +S     S Q       E S S E Q
|---------------------------0-------------------|--------0-------------------------|
|-----------------------------------------------|------------------0---------------|
|-----------------------------2pb4==(2)r2b4-(2)-|-(2)pb4-------------4s2-0---------|
|-----------------------------------------------|--------------------------2-------|
|-----------------------------------------------|----------------------------------|
|-----------------------------------------------|----------------------------------|
|
| Gtr III
|     E     E     E     E E E E         E          E     E   E     E E   E E     E
|-----------------------------------------------|----------------------------------|
|-----------------------------------------------|----------------------------------|
|-----------------------------------------------|----------------------------------|
|-----------2-----------2---2-----------2-------|--------2---------2-----2-------2-|
|-----------------4b4.5-------4b4.5-------------|------------4b4.5---------4b4.5---|
|-----------------------------------------------|----------------------------------|
|
| Gtr IV
|  a  S  S  S  S  Q       H                        W
|-10s12-12-12-12-12\----------------------------|----------------------------------|
|-10s12-12-12-12-12\----------------------------|----------------------------------|
|-10s12-12-12-12-12\----------------------------|----------------------------------|
|-----------------------------------------------|----------------------------------|
|-----------------------------------------------|----------------------------------|
|-----------------------------------------------|----------------------------------|


           E6           E5  E6      E5      E6      E5          E6              E5
      E     E     E     E E E E     E   E   E E     E E         E         E      E
            |           |   |       |       |       |           |                |
            /           /   /       /       /       /           /                /

                                                                                 ~~~
      H                   E E E     E   E   e E     E S     +s  S     +s  E      E
|---------------------------0---------|---------------------------------------------|
|-----------------------------2pb3r===|=====3---------------------------------------|
|-----------------------------------0-|-2b4-----------------------------------------|
|-------------------------------------|-------------2-5b5.5-(5)-5b5.5-(5)-------(2)-|
|-------------------------------------|---------------------------------------------|
|-------------------------------------|---------------------------------------------|
|
|     E     E     E     E E E E     E   E   E E     E E         E         E      E
|-------------------------------------|---------------------------------------------|
|-------------------------------------|---------------------------------------------|
|-------------------------------------|---------------------------------------------|
|-----------2-----------2---2-------2-|-----2-------2-----------2----------------2--|
|-----------------4b4.5-------4b4.5---|-------4b4.5-----------------------4b4.5-----|
|-------------------------------------|---------------------------------------------|
|
|  a  S  S  S  S  Q       H             W
|-10s12-12-12-12-12\------------------|---------------------------------------------|
|-10s12-12-12-12-12\------------------|---------------------------------------------|
|-10s12-12-12-12-12\------------------|---------------------------------------------|
|-------------------------------------|---------------------------------------------|
|-------------------------------------|---------------------------------------------|
|-------------------------------------|---------------------------------------------|


    A5    A6      A5   A6      A5  A6      A5      A6
  Gtr I
  E  E  E E E     E  E E     E E E  E   E  E     E E
     |    |       |    |       |    |      |       |
     /    /       /    /       /    /      /       /

  Gtr II
  Q  e  E E E     Q        H        E   e  E       E
|------------------------|-----------------------------|
|---/3-------------------|-----------------------------|
|-------2----------------|-----------------------------|
|---------4--------------|--------------2--------------|
|-----------3b3.5-0------|---------/4------------------|
|------------------------|-----------------2b2.5---2b3-|
|
| Gtr III
| E  E  E E E     E  E E     E E E  E   E  E     E E
|------------------------|-----------------------------|
|------------------------|-----------------------------|
|----2--2-2-2-----2--2-2-|-----2-2--2---2--2-----2-2---|
|-------4---5--------4---|-------4------5--------4-----|
|------------------------|-----------------------------|
|------------------------|-----------------------------|
|
| Gtr IV
| E  H            Q.       a Q   Q    a H
|-3s=5\------------------|-3s5--------3s5\-------------|
|-3s=5\------------------|-3s5--------3s5\-------------|
|-3s=5\------------------|-3s5--------3s5\-------------|
|------------------------|-----------------------------|
|------------------------|-----------------------------|
|------------------------|-----------------------------|


           E6           E5  E6      E5      E6      E5  E6        E5
      E     E     E     E E E E     E   E   E E     E E  E  E      E
            |           |   |       |       |       |    |         |
            /           /   /       /       /       /    /         /

   >
                                                      ~
   W                                    E     q       H               +E
|-------------------------------------|-----------------------------------|
|-------------------------------------|-------0---------------------------|
|-------------------------------------|-----------------------------------|
|-------------------------------------|-5b6-----------2---------------(2)-|
|-------------------------------------|-----------------------------------|
|--0----------------------------------|-----------------------------------|
|
|     E     E     E     E E E E     E   E   E E     E E  E  E      E
|-------------------------------------|-----------------------------------|
|-------------------------------------|-----------------------------------|
|-------------------------------------|-----------------------------------|
|-----------2-----------2---2-------2-|-----2-------2----2---------2------|
|-----------------4b4.5-------4b4.5---|-------4b4.5---------4b4.5---------|
|-------------------------------------|-----------------------------------|
|
|  a  S  S  S  S  Q       H             H             E  a  E      Q
|-10s12-12-12-12-12\------------------|-----------------10s12-----12\-----|
|-10s12-12-12-12-12\------------------|-----------------10s12-----12\-----|
|-10s12-12-12-12-12\------------------|-----------------10s12-----12\-----|
|-------------------------------------|-----------------------------------|
|-------------------------------------|-----------------------------------|
|-------------------------------------|-----------------------------------|


     F#5   Ebm/F#         F#5  Ebm/F# A5    A6   A5    A6
  Gtr I
   E  E  E E         E    E  E E    E  E  E  E E E   E E
      |    |              |    |       |     |   |     |
      /    /              /    /       /     /   /     /

  Gtr II
   Q.      S    +S  +E    e  Q      E  e  E  e E E   E E
|-------------------------2------|----/9-----------------|
|--------------------------------|----------/7-----------|
|----------4pb6r(4)-(4)b6--------|---------------4b6r====|
|--------------------------------|-------------------4---|
|--------------------------------|---------------------3-|
|--------------------------------|-----------------------|
|
| Gtr III
|  E  E  E E         E    E  E E    E  E  E  E E E   E E
|--------------------------------|-----------------------|
|--------------------------------|-----------------------|
|--------------------------------|-----2--2--2-2-2---2-2-|
|-----4--4-4---------4----4--4-4-|--------4----5-----4---|
|--------6-----------7-------6---|-----------------------|
|--------------------------------|-----------------------|
|
| Gtr IV
|  E  H                   Q.        E  H         Q.
|-12s14\-------------------------|-15s17\----------------|
|-12s14\-------------------------|-15s17\----------------|
|-12s14\-------------------------|-15s17\----------------|
|--------------------------------|-----------------------|
|--------------------------------|-----------------------|
|--------------------------------|-----------------------|


     B5    G#m/B5    G#m/B    B5  G#m/B    G/B
   E  E  E E E E  E  E   E    E E  E  Q
      |    |   |     |        |    |
      /    /   /     /        /    /

   ~~~                                ~~
   H         E S  S  q   E    E S +S  Q.     Q
|----------------------|------7-----------------|
|----------------------|------------------------|
|--------------------4-|-6b8====6r(6)-4---------|
|--------------4-(4)-4-|------------------------|
|-/2-----------4h=6----|------------------------|
|----------------------|------------------------|
|
|  E  E  E E E E  E  E   E    E E  E  E  E Q
|----------------------|------------------------|
|----------------------|------------------------|
|-----4--4-4-4-4--4--4-|------4-4--4--4----4----|
|--------6---7----6----|-4------6-----7----5----|
|----------------------|-2-----------------2----|
|----------------------|------------------------|
|
|  E  H        Q.        H.                Q
|-17s19\---------------|-------------------7----|
|-17s19\---------------|-------------------7----|
|-17s19\---------------|-------------------0----|
|----------------------|-------------------5----|
|----------------------|------------------------|
|----------------------|------------------------|


  Gtr I
  E E E     E E E E     E   E E E     E E E E     E
|-------------------------|-------------------------|
|-------------------------|-------------------------|
|-------------------------|-------------------------|
|-------------------------|-------------------------|
|---4-------2---4-------2-|---4-------2---4-------2-|
|---0-------0---0-------0-|---0-------0---0-------0-|
|
| Gtr III
| E E E     E E E E     E   E E E     E E E E     E
|-------------------------|-------------------------|
|-------------------------|-------------------------|
|-------------------------|-------------------------|
|---2-------2---2-------2-|---2-------2---2-------2-|
|-----4b4.5-------4b4.5---|-----4b4.5-------4b4.5---|
|-------------------------|-------------------------|


  E E E     E E E E     E   E E E     E E E E     E
|-------------------------|-------------------------|
|-------------------------|-------------------------|
|-------------------------|-------------------------|
|-------------------------|-------------------------|
|---4-------2---4-------2-|---4-------2---4-------2-|
|---0-------0---0-------0-|---0-------0---0-------0-|
|
| E E E     E E E E     E   E E E     E E E E     E
|-------------------------|-------------------------|
|-------------------------|-------------------------|
|-------------------------|-------------------------|
|---2-------2---2-------2-|---2-------2---2-------2-|
|-----4b4.5-------4b4.5---|-----4b4.5-------4b4.5---|
|-------------------------|-------------------------|


  Gtr I
   E E  E  E E E E E   E E E E E E E E    E E  E       E  E E  E         E
|--------------------|-----------------|------------------------------------|
|--------------------|-----------------|------------------------------------|
|--------------------|-----------------|------------------------------------|
|----2-----4---2---4-|---2---4---2---4-|------------------------------------|
|----0-----0---0---0-|---0---0---0---0-|----4----------2----4------------2--|
|--------------------|-----------------|----0----------0----0------------0--|
|
| Gtr III
|  E E  E  E E E E E   E E E E E E E E    E E  E       E  E E  E         E
|--------------------|-----------------|------------------------------------|
|--------------------|-----------------|------------------------------------|
|----2--2--2-2-2-2-2-|---2-2-2-2-2-2-2-|------------------------------------|
|-------4----5---4---|-----4---5---4---|----2----------2----2------------2--|
|--------------------|-----------------|-------4b4.5-----------4b4.5--------|
|--------------------|-----------------|------------------------------------|
|
| Gtr IV
|  Q    H        Q     W                  Q    Q      +S    E.        S  E.
|-15s==17\-----------|-----------------|-10s==12-----(12)------------12-12--|
|-15s==17\-----------|-----------------|-10s==12-----(12)------------12-12--|
|-15s==17\-----------|-----------------|-10s==12-----(12)------------12-12--|
|--------------------|-----------------|------------------------------------|
|--------------------|-----------------|------------------------------------|
|--------------------|-----------------|------------------------------------|


   E     E   E        E      E E E     E
|----------------------------------------|
|----------------------------------------|
|----------------------------------------|
|----------------------------------------|
|--------4------------2--------4-------2-|
|--------0------------0--------0-------0-|
|
|  E     E   E        E      E E E     E
|----------------------------------------|
|----------------------------------------|
|----------------------------------------|
|--------2------------2--------2-------2-|
|------------4b4.5---------------4b4.5---|
|----------------------------------------|
|
|  S  E.    +S      E.    H
|-12-12----(12)----12s==(10)-------------|
|-12-12----(12)----12s===10\-------------|
|-12-12----(12)----12s==(10)-------------|
|----------------------------------------|
|----------------------------------------|
|----------------------------------------|


  Gtr I
  E E E E E E E E    E  E  E  E E E E E
|-----------------|---------------------|
|-----------------|---------------------|
|-----------------|---------------------|
|---2---4---2---4-|-----2-----4---2---4-|
|---0---0---0---0-|-----0-----0---0---0-|
|-----------------|---------------------|
|
| Gtr III
| E E E E E E E E    E  E  E  E E E E E
|-----------------|---------------------|
|-----------------|---------------------|
|---2-2-2-2-2-2-2-|-----2--2--2-2-2-2-2-|
|-----4---5---4---|--------4----5---4---|
|-----------------|---------------------|
|-----------------|---------------------|
|
| Gtr IV
| Q   H       Q      Q     H
|-3s==5-----------|-(3)s==(5)-----------|
|-3s==5-----------|-(3)s==(5)-----------|
|-3s==5-----------|-(3)s==(5)-----------|
|-----------------|---------------------|
|-----------------|---------------------|
|-----------------|---------------------|


  E E E E E E E E   E E E  E  E  E  E   E
|-----------------|-------------------------|
|-----------------|-------------------------|
|-----------------|-------------------------|
|---4---6---4---6-|---4----6-----4------6---|
|---2---2---2---2-|---2----2-----2------2---|
|-----------------|-------------------------|
|
| E E E E E E E E   E E E  E  E  E  E   E
|-----------------|-------------------------|
|-----------------|-------------------------|
|---4-4-4-4-4-4-4-|---4-4--4--4--4--4---4---|
|-----6---7---6---|-----6-----7-----6-------|
|-----------------|-------------------------|
|-----------------|-------------------------|
|
| Q   H       Q     E Q    S  E. S  E. +E
|-5s==7-----------|-5s7----7s=6-----5--(5)\-|
|-5s==7-----------|-5s7---(7)s6--5-(5)-(5)\-|
|-5s==7-----------|-5s7---(7)s6--5-(5)-(5)\-|
|-----------------|-------------------------|
|-----------------|-------------------------|
|-----------------|-------------------------|


    E6      E5  E6      E5    E6      E5  E6      E5
  Gtr I
  E E E     E E E E     E   E E E     E E E E     E
    |       |   |       |     |       |   |       |
    /       /   /       /     /       /   /       /

  Gtr II
|-------------------------|-------------------------|
|-------------------------|-------------------------|
|-------------------------|-------------------------|
|-------------------------|-------------------------|
|-------------------------|-------------------------|
|-------------------------|-------------------------|
|
| Gtr IV
|-------------------------|-------------------------|
|-------------------------|-------------------------|
|-------------------------|-------------------------|
|-------------------------|-------------------------|
|-------------------------|-------------------------|
|-------------------------|-------------------------|
|
| Gtr III
| E E E     E E E E     E   E E E     E E E E     E
|-------------------------|-------------------------|
|-------------------------|-------------------------|
|-------------------------|-------------------------|
|---2-------2---2-------2-|---2-------2---2-------2-|
|-----4b4.5-------4b4.5---|-----4b4.5-------4b4.5---|
|-------------------------|-------------------------|


    E6      E5  E6      E5    E6      E5  E6G     G#m
  E E E     E E E E     E   E E E     E E E E     E
    |       |   |       |     |       |   | |     |
    /       /   /       /     /       /   / /     /

|-------------------------|-------------------------|
|-------------------------|-------------------------|
|-------------------------|-------------------------|
|-------------------------|-------------------------|
|-------------------------|-------------------------|
|-------------------------|-------------------------|
|
|-------------------------|-------------------------|
|-------------------------|-------------------------|
|-------------------------|-------------------------|
|-------------------------|-------------------------|
|-------------------------|-------------------------|
|-------------------------|-------------------------|
|
| E E E     E E E E     E   E E E     E E E E     E
|-------------------------|-------------------------|
|-------------------------|-------------------------|
|-------------------------|-------------------------|
|---2-------2---2-------2-|---2-------2---2-------2-|
|-----4b4.5-------4b4.5---|-----4b4.5-------4b4.5---|
|-------------------------|-------------------------|


     A5   A6  A5   A6     A5  A6  A5      A6
  Gtr I
   E  E E E E E  E E    E E E E E E E     E
      |   |   |    |      |   |   |       |
      /   /   /    /      /   /   /       /

  Gtr II
                        e E E Q   E E     E
|--------------------|------------------------|
|--------------------|-/2---------------------|
|--------------------|----2-------------------|
|--------------------|------4-2---------------|
|--------------------|------------------------|
|--------------------|--------------2b2.5-2b3-|
|
| Gtr IV
|  E  H       Q.
|-15s17--------------|------------------------|
|-15s17--------------|------------------------|
|-15s17--------------|------------------------|
|--------------------|------------------------|
|--------------------|------------------------|
|--------------------|------------------------|
|
| Gtr III
|  E  E E E E E  E E    E E E E E E E     E
|--------------------|------------------------|
|--------------------|------------------------|
|-----2-2-2-2-2--2-2-|----2-2-2-2-2-2-----2---|
|-------4---5----4---|------4---5---4---------|
|--------------------|------------------------|
|--------------------|------------------------|


     E6        E5     E6      E5        E6      E5  E6      E5
   E  E  E      E  E  E E     E      E  E E     E E E E     E
      |         |     |       |         |       |   |       |
      /         /     /       /         /       /   /       /

   >
   H.                   E     E      Q    H.
|---------------------------------|---------------------------|
|---------------------------------|---------------------------|
|---------------------------------|---------------------------|
|---------------------------------|---------------------------|
|---------------------------------|---------------------------|
|--0--------------------2b2.5-2b3-|-(0)-----------------------|
|
|  E  S  S      S  Q    Q..
|-10s12-12-----12-12\-------------|---------------------------|
|-10s12-12-----12-12\-------------|---------------------------|
|-10s12-12-----12-12\-------------|---------------------------|
|---------------------------------|---------------------------|
|---------------------------------|---------------------------|
|---------------------------------|---------------------------|
|
|  E  E  E      E  E  E E     E      E  E E     E E E E     E
|---------------------------------|---------------------------|
|---------------------------------|---------------------------|
|---------------------------------|---------------------------|
|-----2---------2-----2-------2---|-----2-------2---2-------2-|
|--------4b4.5----------4b4.5-----|-------4b4.5-------4b4.5---|
|---------------------------------|---------------------------|


    F#5 Ebm/F#F#5 Ebm/F#A5  A6  A5  A6    B5  G#m/B5  G#m/B  B5  G#m/B
  E E E E E   E E E   E E E E E E E E   E E E E E E E E   E  E E E Q
    |   |     |   |     |   |   |   |     |   |   |   |      |   |
    /   /     /   /     /   /   /   /     /   /   /   /      /   /

  Gtr III
                      E E E E E E E E   E E E E E E E E   E  E E E E E Q
|-------------------|-----------------|-----------------|-----------------|
|-------------------|-----------------|-----------------|-----------------|
|-------------------|---2-2-2-2-2-2-2-|---4-4-4-4-4-4-4-|----4-4-4-4---4--|
|-------------------|-----4---5---4---|-----6---7---6---|------6---7---5--|
|-------------------|-----------------|-----------------|--------------2--|
|-------------------|-----------------|-----------------|-----------------|
|
| Gtr IV
|-------------------|-----------------|-----------------|-----------------|
|-------------------|-----------------|-----------------|-----------------|
|-------------------|-----------------|-----------------|-----------------|
|-------------------|-----------------|-----------------|-----------------|
|-------------------|-----------------|-----------------|-----------------|
|-------------------|-----------------|-----------------|-----------------|
|
| Gtr II                                                  Gtr V
| H       E   e Q                                         H.           Q
|-------------2-----|-----------------|-----------------|--------------7--|
|-------------------|-----------------|-----------------|--------------0--|
|---------4b6-------|-----------------|-----------------|--------------4--|
|-------------------|-----------------|-----------------|--------------5--|
|-------------------|-----------------|-----------------|-----------------|
|-------------------|-----------------|-----------------|-----------------|

Duration Legend
---------------
W - whole; H - half; Q - quarter; E - 8th; S - 16th; T - 32nd; X - 64th; a - acciaccatura
+ - note tied to previous; . - note dotted; .. - note double dotted
Uncapitalized letters represent notes that are staccato (1/2 duration)
Irregular groupings are notated above the duration line
Duration letters will always appear directly above the note/fret number it represents the
duration for.  Duration letters with no fret number below them represent rests.  Multi-
bar rests are notated in the form Wxn, where n is the number of bars to rest for.  Low
melody durations appear below the staff

Tablature Legend
----------------
 h   - hammer-on
 p   - pull-off
 b   - bend
 pb  - pre-bend
 r   - bend release (if no number after the r, then release immediately)
 /\  - slide into or out of (from/to "nowhere")
 s   - legato slide
 S   - shift slide
 - natural harmonic
[n]  - artificial harmonic
n(n) - tapped harmonic
 ~   - vibrato
 tr  - trill
 T   - tap
 TP  - trem. picking
 PM  - palm muting
\n/  - tremolo bar dip; n = amount to dip
 \n  - tremolo bar down
 n/  - tremolo bar up
/n\  - tremolo bar inverted dip
 =   - hold bend; also acts as connecting device for hammers/pulls
 <> - volume swell (louder/softer)
 x   - on rhythm slash represents muted slash
 o   - on rhythm slash represents single note slash

Misc Legend
-----------
 |  - bar
||  - double bar
||o - repeat start
o|| - repeat end
*|  - double bar (ending)
 :  - bar (freetime)
 $  - Segno
 &  - Coda
Tempo markers -  = BPM(8/16=s8/s16), where s8 = swing 8ths, s16 = swing 16ths
Добавлено: 15.07.2012
Другие материалы по этой песне:

Страница создана 17.03.2012
http://primanota.ru/dave-edmunds/i-hear-you-knockin-chords.htm
Привет, Гость.
Предлагаем пройти революционный курс по гитаре.
Подарок от PrimaNota.Ru, забирай!