PrimaNota.ru - самый крупный в мире бесплатный архив песенных текстов, аккордов, табулатур и нот


Dave Edmunds - Here Comes The Weekend - таба, видео

Регистрация Запомнить меня
Войти через:  Facebook Google Twitter Vk Yandex Mail.ru

Dave Edmunds - Here Comes The Weekend - таба, видео

Печатать
Просмотров: 101
HERE COMES THE WEEKEND

As recorded by Dave Edmunds
(From the 1977 Album GET IT)

Words and Music by Dave Edmunds & Nick Lowe

Transcribed by Slowhand


           E                   E6                    B                   B6
      0 2 2 1 0 0          0 4 2 1 0 0          x 2 4 4 4 x          x 2 6 4 4 x

           A                   A6                   F#                   F#6
      x 0 2 2 2 0          x 0 4 2 2 0          2 4 4 3 2 2          2 6 4 3 2 2



Gtr I (E A D G B E) - 'Dave Edmunds - Acoustic Guitar'
Gtr II (E A D G B E) - 'Dave Edmunds - Electric Guitar '
Gtr III (E A D G B E) - 'Dave Edmunds - Electric Guitar '


 Intro
  Q=168
  E   E6  E   E6E       E6E     E6E       E6E       E6E         E6E       E6E
 4/4
  Gtr I (Ac. Gtr.)
  E E E E E E E E   E E E E E E E E   E E E E  E  E E E    E  E E E E E   E E
  | | | | | | | |   | | | | | | | |   | | | |  |  | | |    |  | | | | |   | |
  / / / / / / / /   / / / / / / / /   / / / /  /  / / /    /  / / / / /   / /

  Gtr III (El. Gtr.)
  E E E E E E E E   E E E E E E E E   E E E E  E  E E E    E  E E E E E   E E
|-----------------|-----------------|-------------------|---------------------||
|-----------------|-----------------|-------------------|---------------------||
|-----------------|-----------------|-------------------|---------------------||
|-2-2-2-2-2-2-2-2-|-2-2-2-2-2-2-2-2-|-2-2-2-2--2--2-2-2-|--2--2-2-2-2-2---2-2-||
|-2-2-4-2-2-2-4-2-|-2-2-4-2-2-2-4-2-|-2-2-4-2--2--2-4-2-|--2--2-4-2-2-2---4-2-||
|-0-0-0-0-0-0-0-0-|-0-0-0-0-0-0-0-0-|-0-0-0-0--0--0-0-0-|--0--0-0-0-0-0---0-0-||
|
| Gtr II (El. Gtr.)
| W                 W                 E E E E +E  E E E   +E  E E E E S S E E
|-----------------|-----------------|-------------------|---------------------||
|-----------------|-----------------|-------------------|---------------------||
|-----------------|-----------------|-------------------|---------------------||
|-----------------|-----------------|-------------------|---------2-5p4p2-----||
|-----------------|-----------------|---2-4-2-(2)-2-4-2-|-(2)-2-4---------4-2-||
|-----------------|-----------------|-------------------|---------------------||


 1st Verse
  E   E6E     E6E       E6E     E6E       E6E     E6E       E6E     E6E
  E E E E E E E E   E E E E E E E E   E E E E E E E E   E E E E E E E E
  | | | | | | | |   | | | | | | | |   | | | | | | | |   | | | | | | | |
  / / / / / / / /   / / / / / / / /   / / / / / / / /   / / / / / / / /

  E E E E E E E E   E E E E E E E E   E E E E E E E E   E E E E E E E E
|-----------------|-----------------|-----------------|------------------|
|-----------------|-----------------|-----------------|------------------|
|-----------------|-----------------|-----------------|------------------|
|-2-2-2-2-2-2-2-2-|-2-2-2-2-2-2-2-2-|-2-2-2-2-2-2-2-2-|-2-2-2-2-2-2-2-2--|
|-2-2-4-2-2-2-4-2-|-2-2-4-2-2-2-4-2-|-2-2-4-2-2-2-4-2-|-2-2-4-2-2-2-4-2--|
|-0-0-0-0-0-0-0-0-|-0-0-0-0-0-0-0-0-|-0-0-0-0-0-0-0-0-|-0-0-0-0-0-0-0-0--|
|
| E E E E E E E E   E E E E E E E E   E E E E E E E E   E E E E E E E E
|-----------------|-----------------|-----------------|------------------|
|-----------------|-----------------|-----------------|------------------|
|-----------------|-----------------|-----------------|------------------|
|-------2---------|-------2---------|-------2---------|------------------|
|---2-4-----2-4-2-|---2-4-----2-4-2-|---2-4-----2-4-2-|------------------|
|-----------------|-----------------|-----------------|---4-4-4-5-5-6-6--|


  B   B6B     B6B       B6B     B6B
  E E E E E E E E   E E E E E E E E
  | | | | | | | |   | | | | | | | |
  / / / / / / / /   / / / / / / / /

  E E E E E E E E   E E E E E E E E
|-----------------|-----------------|
|-----------------|-----------------|
|-4-4-4-4-4-4-4-4-|-4-4-4-4-4-4-4-4-|
|-4-4-6-4-4-4-6-4-|-4-4-6-4-4-4-6-4-|
|-2-2-2-2-2-2-2-2-|-2-2-2-2-2-2-2-2-|
|-----------------|-----------------|
|
| E E E E E E E E   E E E E E E E E
|-----------------|-----------------|
|-----------------|-----------------|
|---------------4-|-----------------|
|---4-6-4---4-6---|---4-6-4---4-6-4-|
|-----------------|-----------------|
|-----------------|-----------------|


  E   E6E       E6E         E6E       E6E
  E E E E  E  E E E    E  E E E  E  E E E
  | | | |  |  | | |    |  | | |  |  | | |
  / / / /  /  / / /    /  / / /  /  / / /

  E E E E  E  E E E    E  E E E  E  E E E
|-------------------|----------------------||
|-------------------|----------------------||
|-------------------|----------------------||
|-2-2-2-2--2--2-2-2-|--2--2-2-2--2--2-2-2--||
|-2-2-4-2--2--2-4-2-|--2--2-4-2--2--2-4-2--||
|-0-0-0-0--0--0-0-0-|--0--0-0-0--0--0-0-0--||
|
| E E E E +E  E E E   +E  E E E +E  E E E
|-------------------|----------------------||
|-------------------|----------------------||
|-------------------|----------------------||
|-------2-(2)-----2-|-(2)-----2-(2)-----2--||
|---2-4-------2-4---|-----2-4-------2-4----||
|-------------------|----------------------||


   2nd - 4th Verses
    $
    E   E6E     E6E       E6E     E6E       E6E     E6E       E6E     E6E
    E E E E E E E E   E E E E E E E E   E E E E E E E E   E E E E E E E E
    | | | | | | | |   | | | | | | | |   | | | | | | | |   | | | | | | | |
    / / / / / / / /   / / / / / / / /   / / / / / / / /   / / / / / / / /

    E E E E E E E E   E E E E E E E E   E E E E E E E E   E E E E E E E E
||------------------|-----------------|-----------------|-----------------|
||o-----------------|-----------------|-----------------|-----------------|
||------------------|-----------------|-----------------|-----------------|
||--2-2-2-2-2-2-2-2-|-2-2-2-2-2-2-2-2-|-2-2-2-2-2-2-2-2-|-2-2-2-2-2-2-2-2-|
||o-2-2-4-2-2-2-4-2-|-2-2-4-2-2-2-4-2-|-2-2-4-2-2-2-4-2-|-2-2-4-2-2-2-4-2-|
||--0-0-0-0-0-0-0-0-|-0-0-0-0-0-0-0-0-|-0-0-0-0-0-0-0-0-|-0-0-0-0-0-0-0-0-|
|
|   E E E E E E E E   E E E E E E E E   E E E E E E E E   E E E E E E E E
||------------------|-----------------|-----------------|-----------------|
||o-----------------|-----------------|-----------------|-----------------|
||------------------|-----------------|-----------------|-----------------|
||--------2---------|-------2---------|-------2---------|-----------------|
||o---2-4-----2-4-2-|---2-4-----2-4-2-|---2-4-----2-4-2-|-----------------|
||------------------|-----------------|-----------------|---4-4-4-5-5-6-6-|


  B   B6B     B6B       B6B     B6B
  E E E E E E E E   E E E E E E E E
  | | | | | | | |   | | | | | | | |
  / / / / / / / /   / / / / / / / /

  E E E E E E E E   E E E E E E E E
|-----------------|-----------------|
|-----------------|-----------------|
|-4-4-4-4-4-4-4-4-|-4-4-4-4-4-4-4-4-|
|-4-4-6-4-4-4-6-4-|-4-4-6-4-4-4-6-4-|
|-2-2-2-2-2-2-2-2-|-2-2-2-2-2-2-2-2-|
|-----------------|-----------------|
|
| E E E E E E E E   E E E E E E E E
|-----------------|-----------------|
|-----------------|-----------------|
|---------------4-|-------4---------|
|---4-6-4---4-6---|---4-6-----4-6-4-|
|-----------------|-----------------|
|-----------------|-----------------|


                     1.,D.S.
  E   E6E       E6E         E6E       E6E
  E E E E  E  E E E    E  E E E  E  E E E
  | | | |  |  | | |    |  | | |  |  | | |
  / / / /  /  / / /    /  / / /  /  / / /

  E E E E  E  E E E    E  E E E  E  E E E
|-------------------|----------------------||
|-------------------|----------------------||
|-------------------|----------------------||
|-2-2-2-2--2--2-2-2-|--2--2-2-2--2--2-2-2--||
|-2-2-4-2--2--2-4-2-|--2--2-4-2--2--2-4-2--||
|-0-0-0-0--0--0-0-0-|--0--0-0-0--0--0-0-0--||
|
| E E E E +E  E E E   +E  E E E +E  E E E
|-------------------|----------------------||
|-------------------|----------------------||
|-------------------|----------------------||
|-------2-(2)-----2-|-(2)-----2-(2)-----2--||
|---2-4-------2-4---|-----2-4-------2-4----||
|-------------------|----------------------||


 Chorus
  A   A6A     A6A       A6A     A6A   E   E6E     E6E       E6E     E6E
  E E E E E E E E   E E E E E E E E   E E E E E E E E   E E E E E E E E
  | | | | | | | |   | | | | | | | |   | | | | | | | |   | | | | | | | |
  / / / / / / / /   / / / / / / / /   / / / / / / / /   / / / / / / / /

  E E E E E E E E   E E E E E E E E   E E E E E E E E   E E E E E E E E
|-----------------|-----------------|-----------------|------------------|
|-----------------|-----------------|-----------------|------------------|
|-2-2-2-2-2-2-2-2-|-2-2-2-2-2-2-2-2-|-----------------|------------------|
|-2-2-4-2-2-2-4-2-|-2-2-4-2-2-2-4-2-|-2-2-2-2-2-2-2-2-|-2-2-2-2-2-2-2-2--|
|-0-0-0-0-0-0-0-0-|-0-0-0-0-0-0-0-0-|-2-2-4-2-2-2-4-2-|-2-2-4-2-2-2-4-2--|
|-----------------|-----------------|-0-0-0-0-0-0-0-0-|-0-0-0-0-0-0-0-0--|
|
| E E E E E E E E   E E E E E E E E   E E E E E E E E   E E E E E E E E
|-----------------|-----------------|-----------------|------------------|
|-----------------|-----------------|-----------------|------------------|
|-2-2-2-2-2-2-2-2-|-2-2-2-2-2-2-2-2-|-----------------|------------------|
|-2-2-4-2-2-2-4-2-|-2-2-4-2-2-2-4-2-|-2-2-2-2-2-2-2-2-|-2-2-2-2-2-2-2-2--|
|-----------------|-----------------|-2-2-4-2-2-2-4-2-|-2-2-4-2-2-2-4-2--|
|-----------------|-----------------|-----------------|------------------|


                             To Coda
  B   B6B     B6B       B6B     B6B   E   E6E     E6E       E6E     E6E
  E E E E E E E E   E E E E E E E E   E E E E E E E E   E E E E E E E E
  | | | | | | | |   | | | | | | | |   | | | | | | | |   | | | | | | | |
  / / / / / / / /   / / / / / / / /   / / / / / / / /   / / / / / / / /

  E E E E E E E E   E E E E E E E E   E E E E E E E E   E E E E E E E E
|-----------------|-----------------|-----------------|------------------||
|-----------------|-----------------|-----------------|------------------||
|-4-4-4-4-4-4-4-4-|-4-4-4-4-4-4-4-4-|-----------------|------------------||
|-4-4-6-4-4-4-6-4-|-4-4-6-4-4-4-6-4-|-2-2-2-2-2-2-2-2-|-2-2-2-2-2-2-2-2--||
|-2-2-2-2-2-2-2-2-|-2-2-2-2-2-2-2-2-|-2-2-4-2-2-2-4-2-|-2-2-4-2-2-2-4-2--||
|-----------------|-----------------|-0-0-0-0-0-0-0-0-|-0-0-0-0-0-0-0-0--||
|
| E E E E E E E E   E E E E E E E E   E E E E E E E E   E E E E E E E E
|-----------------|-----------------|-----------------|------------------||
|-----------------|-----------------|-----------------|------------------||
|-4-4-4-4-4-4-4-4-|-4-4-4-4-4-4-4-4-|-----------------|-1-1--------------||
|-4-4-6-4-4-4-6-4-|-4-4-6-4-4-4-6-4-|-2-2-2-2-2-2-2-2-|-2-2-4-4-2-2-0-0--||
|-----------------|-----------------|-2-2-4-2-2-2-4-2-|-----5-5-4-4-2-2--||
|-----------------|-----------------|-----------------|------------------||


 Bridge
  A   A6A     A6A         A6A     A6A   E   E6E     E6E         E6E     E6E
  E E E E E E E E    E  E E E E E E E   E E E E E E E E    E  E E E E E E E
  | | | | | | | |    |  | | | | | | |   | | | | | | | |    |  | | | | | | |
  / / / / / / / /    /  / / / / / / /   / / / / / / / /    /  / / / / / / /

  E E E E E E E E    E  E E E E E E E   E E E E E E E E    E  E E E E E E E
|-----------------|-------------------|-----------------|--------------------|
|-----------------|-------------------|-----------------|--------------------|
|-2-2-2-2-2-2-2-2-|--2--2-2-2-2-2-2-2-|-----------------|--------------------|
|-2-2-4-2-2-2-4-2-|--2--2-4-2-2-2-4-2-|-2-2-2-2-2-2-2-2-|--2--2-2-2-2-2-2-2--|
|-0-0-0-0-0-0-0-0-|--0--0-0-0-0-0-0-0-|-2-2-4-2-2-2-4-2-|--2--2-4-2-2-2-4-2--|
|-----------------|-------------------|-0-0-0-0-0-0-0-0-|--0--0-0-0-0-0-0-0--|
|
| E E E E E E E E   +E  E E E E E E E   E E E E E E E E   +E  E E E E E E E
|-----------------|-------------------|-----------------|--------------------|
|-----------------|-------------------|-----------------|--------------------|
|---------------2-|-(2)---------------|-----------------|--------------------|
|-2-2-4-2-2-2-4-2-|-(2)-2-4-2-2-2-4-2-|---------------2-|-(2)----------------|
|-0-0-0-0-0-0-0---|-------0-0-0-0-0-0-|-2-2-4-2-2-2-4-2-|-(2)-2-4-2-2-2-4-2--|
|-----------------|-------------------|-0-0-0-0-0-0-0---|-----0-0-0-0-0-0-0--|


  A   A6A     A6A         A6A     A6A   F#  F#F#    F#F#  A
  E E E E E E E E    E  E E E E E E E   E E E E E E E E   E E Q  H
  | | | | | | | |    |  | | | | | | |   | | | | | | | |   |
  / / / / / / / /    /  / / / / / / /   / / / / / / / /   /

  E E E E E E E E    E  E E E E E E E   E E E E E E E E   E E Q  H
|-----------------|-------------------|-----------------|------------------||
|-----------------|-------------------|-----------------|-----------------o||
|-2-2-2-2-2-2-2-2-|--2--2-2-2-2-2-2-2-|-----------------|-2----------------||
|-2-2-4-2-2-2-4-2-|--2--2-4-2-2-2-4-2-|-4-4-4-4-4-4-4-4-|-2----------------||
|-0-0-0-0-0-0-0-0-|--0--0-0-0-0-0-0-0-|-4-4-6-4-4-4-6-4-|-0---------------o||
|-----------------|-------------------|-2-2-2-2-2-2-2-2-|------------------||
|
| E E E E E E E E   +E  E E E E E E E   E E E E E E E E   E E Q  E E E E
|-----------------|-------------------|-----------------|------------------||
|-----------------|-------------------|-----------------|-----------------o||
|---------------2-|-(2)---------------|-----------------|------------------||
|-2-2-4-2-2-2-4-2-|-(2)-2-4-2-2-2-4-2-|-----------------|-2------------0---||
|-0-0-0-0-0-0-0---|-------0-0-0-0-0-0-|-4-4-6-4-4-4-6-4-|-0--------1h2----o||
|-----------------|-------------------|-2-2-2-2-2-2-2-2-|------------------||


                                Guitar Solo
  2.
  E   E6E            E6   E      E   E6E      E6E
  E E E E     E   E  E     E     E E E E  E E E E
  | | | |     |   |  |     |     | | | |  | | | |
  / / / /     /   /  /     /     / / / /  / / / /

  E E E E     E   E  E     E     E E E E  E E E E
|-----------------------------||------------------|
|-----------------------------||------------------|
|-----------------------------||------------------|
|-2-2-2-2-----2---2--2-----2--||-2-2-2-2--2-2-2-2-|
|-2-2-4-2-----2---2--4-----2--||-2-2-4-2--2-2-4-2-|
|-0-0-0-0-----0---0--0-----0--||-0-0-0-0--0-0-0-0-|
|
| Q   E E    +E  +E  E    +E     Q   E E  E E E E
|-----------------------------||------------------|
|-----------------------------||------------------|
|-----------------------------||------------------|
|-----------------------------||------------------|
|-----------------------------||------------2-4-2-|
|-------2b3==(2)r(2)-2pb3r(2)-||-0---0-0-/4-------|


  A   A6A       A6A   E   E6 E       E6E
  E E E E E   E E E   E E  E E E   E E E
  | | | | |   | | |   | |  | | |   | | |
  / / / / /   / / /   / /  / / /   / / /

  E E E E E   E E E   E E  E E E   E E E
|-------------------|---------------------|
|-------------------|---------------------|
|-2-2-2-2-2---2-2-2-|---------------------|
|-2-2-4-2-2---2-4-2-|-2-2--2-2-2---2-2-2--|
|-0-0-0-0-0---0-0-0-|-2-2--4-2-2---2-4-2--|
|-------------------|-0-0--0-0-0---0-0-0--|
|
| Q   E E S S E E E   Q    E E S S E E E
|-------------------|---------------------|
|-------------------|---------------------|
|-----2-------------|---------------------|
|-------2-5p4p2---2-|---------------------|
|-0-------------4---|--------2-5p4-2---2--|
|-------------------|-0---/4---------4----|


  B     B6B        B6  B   E   E6E      E6E
   E  E E E E E     E  E   E E E E  E E E E
   |  | | | | |     |  |   | | | |  | | | |
   /  / / / / /     /  /   / / / /  / / / /

   E  E E E E E     E  E   E E E E  E E E E
|------------------------|------------------|
|------------------------|------------------|
|--4--4-4-4-4-4-----4--4-|------------------|
|--4--4-6-4-4-4-----6--4-|-2-2-2-2--2-2-2-2-|
|--2--2-2-2-2-2-----2--2-|-2-2-4-2--2-2-4-2-|
|------------------------|-0-0-0-0--0-0-0-0-|
|
| +H        E E    +Q      Q   E E  E E E E
|------------------------|------------------|
|------------------------|------------------|
|------------------------|------------------|
|------------------------|------------------|
|-(2)--------------------|------------2-4-2-|
|-------------2pb3r(2)---|-0---0-0-/4-------|


  A   A6A       A6A   B    B6  B     B6   B
  E E E E E   E E E    E E E   E E E E     E
  | | | | |   | | |    | | |   | | | |     |
  / / / / /   / / /    / / /   / / / /     /

  E E E E E   E E E    E E E   E E E E     E
|-------------------|--------------------------|
|-------------------|--------------------------|
|-2-2-2-2-2---2-2-2-|--4-4-4---4-4-4-4-----4---|
|-2-2-4-2-2---2-4-2-|--4-4-6---4-4-4-6-----4---|
|-0-0-0-0-0---0-0-0-|--2-2-2---2-2-2-2-----2---|
|-------------------|--------------------------|
|
| Q   E E S S E E E    E E S S E E E E    +E
|-------------------|--------------------------|
|-------------------|--------------------------|
|-----2-------------|----4---------------------|
|-------2-5p4p2---2-|-/6---6p4-----------------|
|-0-------------4---|----------7-4-------------|
|-------------------|--------------7-2pb3r(2)--|


                    Bridge
  E   E6E     E6E    A   A6A     A6A         A6A     A6A   E   E6E     E6E
  E E E E E E E E    E E E E E E E E    E  E E E E E E E   E E E E E E E E
  | | | | | | | |    | | | | | | | |    |  | | | | | | |   | | | | | | | |
  / / / / / / / /    / / / / / / / /    /  / / / / / / /   / / / / / / / /

  E E E E E E E E    E E E E E E E E    E  E E E E E E E   E E E E E E E E
|-----------------||-----------------|-------------------|------------------|
|-----------------||-----------------|-------------------|------------------|
|-----------------||-2-2-2-2-2-2-2-2-|--2--2-2-2-2-2-2-2-|------------------|
|-2-2-2-2-2-2-2-2-||-2-2-4-2-2-2-4-2-|--2--2-4-2-2-2-4-2-|-2-2-2-2-2-2-2-2--|
|-2-2-4-2-2-2-4-2-||-0-0-0-0-0-0-0-0-|--0--0-0-0-0-0-0-0-|-2-2-4-2-2-2-4-2--|
|-0-0-0-0-0-0-0-0-||-----------------|-------------------|-0-0-0-0-0-0-0-0--|
|
| W                  E E E E E E E E   +E  E E E E E E E   E E E E E E E E
|-----------------||-----------------|-------------------|------------------|
|-----------------||-----------------|-------------------|------------------|
|-----------------||---------------2-|-(2)---------------|------------------|
|-----------------||-2-2-4-2-2-2-4-2-|-(2)-2-4-2-2-2-4-2-|---------------2--|
|-----------------||-0-0-0-0-0-0-0---|-------0-0-0-0-0-0-|-2-2-4-2-2-2-4-2--|
|-0---------------||-----------------|-------------------|-0-0-0-0-0-0-0----|


        E6E     E6E   A   A6A     A6A         A6A     A6A   F#  F#F#    F#F#
   E  E E E E E E E   E E E E E E E E    E  E E E E E E E   E E E E E E E E
   |  | | | | | | |   | | | | | | | |    |  | | | | | | |   | | | | | | | |
   /  / / / / / / /   / / / / / / / /    /  / / / / / / /   / / / / / / / /

   E  E E E E E E E   E E E E E E E E    E  E E E E E E E   E E E E E E E E
|-------------------|-----------------|-------------------|------------------|
|-------------------|-----------------|-------------------|------------------|
|-------------------|-2-2-2-2-2-2-2-2-|--2--2-2-2-2-2-2-2-|------------------|
|--2--2-2-2-2-2-2-2-|-2-2-4-2-2-2-4-2-|--2--2-4-2-2-2-4-2-|-4-4-4-4-4-4-4-4--|
|--2--2-4-2-2-2-4-2-|-0-0-0-0-0-0-0-0-|--0--0-0-0-0-0-0-0-|-4-4-6-4-4-4-6-4--|
|--0--0-0-0-0-0-0-0-|-----------------|-------------------|-2-2-2-2-2-2-2-2--|
|
| +E  E E E E E E E   E E E E E E E E   +E  E E E E E E E   E E E E E E E E
|-------------------|-----------------|-------------------|------------------|
|-------------------|-----------------|-------------------|------------------|
|-------------------|---------------2-|-(2)---------------|------------------|
|-(2)---------------|-2-2-4-2-2-2-4-2-|-(2)-2-4-2-2-2-4-2-|------------------|
|-(2)-2-4-2-2-2-4-2-|-0-0-0-0-0-0-0---|-------0-0-0-0-0-0-|-4-4-6-4-4-4-6-4--|
|-----0-0-0-0-0-0-0-|-----------------|-------------------|-2-2-2-2-2-2-2-2--|


                     Outro
     D.S. al Coda &
  A                   E   E6E     E6E         E6E     E6E
  E E Q  H            E E E E E E E E    E  E E E E E E E
  |                   | | | | | | | |    |  | | | | | | |
  /                   / / / / / / / /    /  / / / / / / /

  E E Q  H            E E E E E E E E    E  E E E E E E E  4x
|-----------------||------------------|--------------------||
|-----------------||o-----------------|-------------------o||
|-2---------------||------------------|--------------------||
|-2---------------||--2-2-2-2-2-2-2-2-|--2--2-2-2-2-2-2-2--||
|-0---------------||o-2-2-4-2-2-2-4-2-|--2--2-4-2-2-2-4-2-o||
|-----------------||--0-0-0-0-0-0-0-0-|--0--0-0-0-0-0-0-0--||
|
| E E Q  E E E E      E E E E E E E E   +E  E Q   Q   E E  4x
|-----------------||------------------|--------------------||
|-----------------||o-----------------|-------------------o||
|-----------------||------------------|--------------------||
|-2------------0--||----------------2-|-(2)----------------||
|-0--------1h2----||o---------2-2-4---|-----2-4---2---4-2-o||
|-----------------||--0-0-4-4---------|--------------------||


Duration Legend
---------------
W - whole; H - half; Q - quarter; E - 8th; S - 16th; T - 32nd; X - 64th; a - acciaccatura
+ - note tied to previous; . - note dotted; .. - note double dotted
Uncapitalized letters represent notes that are staccato (1/2 duration)
Irregular groupings are notated above the duration line
Duration letters will always appear directly above the note/fret number it represents the
duration for.  Duration letters with no fret number below them represent rests.  Multi-
bar rests are notated in the form Wxn, where n is the number of bars to rest for.  Low
melody durations appear below the staff

Tablature Legend
----------------
 h   - hammer-on
 p   - pull-off
 b   - bend
 pb  - pre-bend
 r   - bend release (if no number after the r, then release immediately)
 /\  - slide into or out of (from/to "nowhere")
 s   - legato slide
 S   - shift slide
  - natural harmonic
[n]  - artificial harmonic
n(n) - tapped harmonic
 ~   - vibrato
 tr  - trill
 T   - tap
 TP  - trem. picking
 PM  - palm muting
\n/  - tremolo bar dip; n = amount to dip
 \n  - tremolo bar down
 n/  - tremolo bar up
/n\  - tremolo bar inverted dip
 =   - hold bend; also acts as connecting device for hammers/pulls
 <>  - volume swell (louder/softer)
 x   - on rhythm slash represents muted slash
 o   - on rhythm slash represents single note slash

Misc Legend
-----------
 |  - bar
||  - double bar
||o - repeat start
o|| - repeat end
*|  - double bar (ending)
 :  - bar (freetime)
 $  - Segno
 &  - Coda
Tempo markers -  = BPM(8/16=s8/s16), where s8 = swing 8ths, s16 = swing 16ths
Добавлено: 14.07.2015
Другие материалы по этой песне:

Страница создана 14.01.2014
http://primanota.ru/dave-edmunds/here-comes-weekend-chords.htm
Привет, Гость.
Предлагаем пройти революционный курс по гитаре.
Подарок от PrimaNota.Ru, забирай!