PrimaNota.ru - самый крупный в мире бесплатный архив песенных текстов, аккордов, табулатур и нот


Dave Days - Next To You - таба, видео

Регистрация Запомнить меня
Войти через:  Facebook Google Twitter Vk Yandex Mail.ru

Dave Days - Next To You - таба, видео

Печатать
Просмотров: 147
Уроки эстрадного вокала в Санкт-Петербурге
i figured id do a tab of this song since none has been done. ^_^ 
not 100 % sure about it but i try :D leave comment :)
email : saulc_rrillo12@yahoo.com
song : http://www.youtube.com/watch?v=Q6IoKnPERrQ

tuning : D ( full step down)

verse:

d|---0---0---0---0-------------------0---0---0---0---0---0---0---0--| 
A|-------------------4---4---4---4----------------------------------| 
F|--1-1-1-1-1-1-1-1-4-4-4-4-4-4-4-4-6-6-6-6-6-6-6-6-2-2-2-2-2-2-2-2-| x2 
C|-2---2---2---2---4---4---4---4---6---6---6---6---2---2---2---2----| 
G|------------------------------------------------------------------| 
D|------------------------------------------------------------------| 

pre-chorus:

d|----0----0----0----0----|    d|-2-0-2-0-2-0-2-0-2-0-2-0-2-0-2-4-2-0-| 
A|----0----0----0----0----|    A|----0-----------0---0----------------|   
F|----1----4----6----2----|    F|-------------------------------------| x2 
C|----2----4----6----2----|    C|-------------------------------------| 
G|----2----2----4----0----|    G|-------------------------------------| 
D|----x----x----x----x----|    D|-------------------------------------| 

chorus:

d|----0----0----0----0----|      d|-2-0-2-0-2-0-2-0-2-0-2-0-2-0-2-4-2-0-| 
A|----0----0----0----0----|      A|----0-----------0---0----------------|   
F|----1----4----6----2----| x2   F|-------------------------------------| x4
C|----2----4----6----2----|      C|-------------------------------------| 
G|----2----2----4----0----|      G|-------------------------------------| 
D|----x----x----x----x----|      D|-------------------------------------| 

verse:

d|---0---0---0---0-------------------0---0---0---0---0---0---0---0--| 
A|-------------------4---4---4---4----------------------------------| 
F|--1-1-1-1-1-1-1-1-4-4-4-4-4-4-4-4-6-6-6-6-6-6-6-6-2-2-2-2-2-2-2-2-| 
C|-2---2---2---2---4---4---4---4---6---6---6---6---2---2---2---2----| 
G|------------------------------------------------------------------| 
D|------------------------------------------------------------------| 

pre-chorus:

d|----0----0----0----0----|    d|-2-0-2-0-2-0-2-0-2-0-2-0-2-0-2-4-2-0-| 
A|----0----0----0----0----|    A|----0-----------0---0----------------|   
F|----1----4----6----2----|    F|-------------------------------------| x2 
C|----2----4----6----2----|    C|-------------------------------------| 
G|----2----2----4----0----|    G|-------------------------------------| 
D|----x----x----x----x----|    D|-------------------------------------| 

chorus:

d|----0----0----0----0----|      d|-2-0-2-0-2-0-2-0-2-0-2-0-2-0-2-4-2-0-| 
A|----0----0----0----0----|      A|----0-----------0---0----------------|   
F|----1----4----6----2----| x2   F|-------------------------------------| x4
C|----2----4----6----2----|      C|-------------------------------------| 
G|----2----2----4----0----|      G|-------------------------------------| 
D|----x----x----x----x----|      D|-------------------------------------| 

bridge:

d|----0----0----0----0----|      d|-2-0-2-0-2-0-2-0-2-0-2-0-2-0-2-4-2-0-| 
A|----0----0----0----0----|      A|----0-----------0---0----------------| 
F|----6----2----9----4----| x2   F|-------------------------------------| x2
C|----6----2----9----4----|      C|-------------------------------------| 
G|----4----0----7----2----|      G|-------------------------------------|
D|----x----x----x----x----|      D|-------------------------------------|

pre-chorus :

d|---0---0---0---0-------------------0---0---0---0---0-| 
A|-------------------4---4---4---4-------------------0-| 
F|--1-1-1-1-1-1-1-1-4-4-4-4-4-4-4-4-6-6-6-6-6-6-6-6--2-|
C|-2---2---2---2---4---4---4---4---6---6---6---6-----2-| 
G|---------------------------------------------------0-| 
D|---------------------------------------------------x-| 

chorus:

d|----0----0----0----0----|      d|-2-0-2-0-2-0-2-0-2-0-2-0-2-0-2-4-2-0-| 
A|----0----0----0----0----|      A|----0-----------0---0----------------|   
F|----1----4----6----2----| x2   F|-------------------------------------| x4
C|----2----4----6----2----|      C|-------------------------------------| 
G|----2----2----4----0----|      G|-------------------------------------| 
D|----x----x----x----x----|      D|-------------------------------------| 

outro:

d|-2-0-2-0-2-0-2-0-2-0-2-0-2-0-2-4-2-0-|
A|----0-----------0---0----------------|
F|-------------------------------------| x2
C|-------------------------------------|
G|-------------------------------------|
D|-------------------------------------|

this is my 2nd tab i believe so please comment and rate it ^__^
and Megan Nicole is soo damnnnn gorgeousss <333 hehe x)
Добавлено: 02.05.2012
Другие материалы по этой песне:
  • Аккорды и текст

Страница создана 02.05.2012
http://primanota.ru/dave-days/next-to-you-chords.htm
Привет, Гость.
Предлагаем пройти революционный курс по гитаре.
Подарок от PrimaNota.Ru, забирай!