PrimaNota.ru - самый крупный в мире бесплатный архив песенных текстов, аккордов, табулатур и нот


Dave Days - Love Story - текст песни, таба, видео

Регистрация Запомнить меня
Войти через:  Facebook Google Twitter Vk Yandex Mail.ru

Dave Days - Love Story - текст песни, таба, видео

Печатать
Просмотров: 252
Love Story (solo)
Dave Days

By Eric Jordan Yumul

Please rate my tab.. thanks


e|---------------------|------------------------|
B|---------------------|------------------------|
G|------7---6---4------|--------4---6-----------|
D|--7-7---7---7---7----|-----7----7---7-6-7-----|
A|---------------------|------------------------|
E|---------------------|------------------------|

e|---------------------|------------------------|
B|---------------------|------------------------|
G|------4---6---4------|-------4----------------|
D|--7-7---7---7---7----|-----7---7--6/7--6/7----|
A|---------------------|------------------------|
E|---------------------|------------------------|

e|---------------------|------------------------|-------------|
B|---------------------|------------------------|-------------|
G|--7---6---4----------|----4-------------------|---4---------|
D|----7---7---7--------|--7---7--6/7--6/7-------|-----7-6-7---|
A|---------------------|------------------------|-------------|
E|---------------------|------------------------|-------------|

e|--------------------------------------------|
B|--------------------------------------------|
G|-------------------7--9--11--13p--13/14-----|
D|-7-7-7---9---11-----------------------------|
A|--------------------------------------------|
E|--------------------------------------------|
Добавлено: 25.06.2012
Другие материалы по этой песне:

Страница создана 01.04.2012
http://primanota.ru/dave-days/love-story-chords.htm
Привет, Гость.
Предлагаем пройти революционный курс по гитаре.
Подарок от PrimaNota.Ru, забирай!