PrimaNota.ru - самый крупный в мире бесплатный архив песенных текстов, аккордов, табулатур и нот


Dave Days - Last Song - текст песни, таба, видео

Регистрация Запомнить меня
Войти через:  Facebook Google Twitter Vk Yandex Mail.ru

Dave Days - Last Song - текст песни, таба, видео

Печатать
Просмотров: 125
Уроки эстрадного вокала в Санкт-Петербурге
Okay so this song is pretty simple, hope you guys enjoy! (Standard tuning)

(0:50)
(Pre - chorus)
 G5   A5   B5   C#5    D5    A5
E-------------------------------------------------------------------------------|
B-------------------------------------------------------------------------------|
G-------------------------------------------------------------------------------|
D-5----7----9----11----12-----7-------------------------------------------------|
A-5----7----9----11----12-----7-------------------------------------------------|
E-3-x3-5-x3-7-x3-9-x3--10-x12-5-x12---------------------------------------------|

(1:00)
(Chorus)
  D5    B5    G5     A5    D5
E-------------------------------------------------------------------------------|
B-------------------------------------------------------------------------------|
G-7------------------------(7)~-------------------------------------------------|
D-7------9-----5-----7-----(7)~-------------------------------------------------|
A-5-x12--9-----5-----7-----(5)~-------------------------------------------------|
E--------7-x12-3-x12-5-x12------------------------------------------------------|

(1:21)
(Solo section) figure out rhythm on the B5 chord
 B5   Bend 10
E------7------------------------------------------------------------------------|
B------10--10-8--8-10-8-7-5-7-5-3-----------------------------------------------|
G-------------------------------------------------------------------------------|
D-5-----------------------------------------------------------------------------|
A-5-----------------------------------------------------------------------------|
E-7-x5--------------------------------------------------------------------------|

(1:27)
(Verse) Figure out Rhythm
 D5     G5    B5    A5
E-----------------------------------------------------------------------------|
B-----------------------------------------------------------------------------|
G-7---------------------------------------------------------------------------|
D-7-----5-----9-----7---------------------------------------------------------|
A-5-x12-5-----9-----7-----(4)-------------------------------------------------|
E-------3-x12-7-x12-5-x12-----------------------------------------------------| x2

(2:28)
(Bridge)
 B5   C#5  D5   A5   G5
E----------------------------------------------------------------------------|
B----------------------------------------------------------------------------|
G-4----6----7-------------------4----6----7----------------------------------|
D-4----6----7----7----5---------4----6----7----7----5-----7------------------|
A-2-x3-4-x3-5-x3-7----5---------2-x3-4-x3-5x3--7----5-----7------------------|
E----------------5-x3-3-x12--x2----------------5-x3-3-x12-5-x12--------------|


(3:04)
(Key Change Chorus) Figure out rhythms
 B5   E5   C#5     A5    B5
E--------------------------------------------------------------------------|
B--------------------------------------------------------------------------|
G-----9--------------------------------------------------------------------|
D-9---9-----11------7-----9------------------------------------------------|
A-9---7-x12-11------7-----9------------------------------------------------|
E-7-x2-------9-x12 -5-x12-7-x12--------------------------------------------|



Order:
Piano Intro/Verse
Prechorus
Chorus
Solo Section
Verse
Prechorus
Chorus x2
Bridge
Piano Bridge
Keychange Chorus  x a lot

This was my first tab so yeah I hope it's okay! :)

If you're confused on how to play it then check out my cover :D
http://www.youtube.com/watch?v=ZFwdB7OWRHs
Добавлено: 02.05.2012
Другие материалы по этой песне:
  • Аккорды и текст

Страница создана 02.05.2012
http://primanota.ru/dave-days/last-song-chords.htm
Привет, Гость.
Предлагаем пройти революционный курс по гитаре.
Подарок от PrimaNota.Ru, забирай!