PrimaNota.ru - самый крупный в мире бесплатный архив песенных текстов, аккордов, табулатур и нот


Dave Days - Get Out Of My Head Miley - текст песни, таба, видео

Регистрация Запомнить меня
Войти через:  Facebook Google Twitter Vk Yandex Mail.ru

Dave Days - Get Out Of My Head Miley - текст песни, таба, видео

Печатать
Просмотров: 131
|---------------------------------------------------------------------------|
       |            DaveDays! - Get out of my head Miley.               |
|---------------------------------------------------------------------------|

Artist: Dave Days
Song: Get out of my head Miley
Made by: SUM - 182
Tuning: D-G-C-F-A-d               (Guitar tune down 1 step)
rasmus.gf@hotmail.com

              v  v ^ v v ^ v  v          v v  ^
d|------------2--2-x-2-x-5-2--2----------2-2--0----------------|
A|------------3--3-x-2-x-2-3--3--(3sec)--3-3--2----------------|
F|------------2--2-x-2-x-2-4--4----------4-4--2----------------|
C|-------------------------------------------------------------|               x2
G|-------------------------------------------------------------|
D|-------------------------------------------------------------|


Vers./Chorus.
d|-------------------------------------------------------------|
A|-------------------------------------------------------------|
F|-------5--5--5-5-------------4-4-4-4-4-4-4-4-----------------|
C|-------5--5--5-5--4--4--4-4--4-4-4-4-4-4-4-4-----------------|
G|-------3--3--3-3--4--4--4-4--2-2-2-2-2-2-2-2-----------------|
D|------------------2--2--2-2----------------------------------|

d|----------------------------------------|
A|----------------------------------------|
F|--4-~--------------------5-~------------|
C|--4-~-(hold)-------------5-~----(hold)--|               x3
G|--2-~--------------------3-~-----------|
D|----------------------------------------|
      When i'm playing my Xbox- There she is...

thnx!
Enjoy!


/////////////////////////////////////////////////////////////////////////////////////////////
Добавлено: 10.06.2012
Другие материалы по этой песне:
  • Аккорды и текст

Страница создана 10.06.2012
http://primanota.ru/dave-days/get-out-of-my-head-miley-chords.htm
Привет, Гость.
Предлагаем пройти революционный курс по гитаре.
Подарок от PrimaNota.Ru, забирай!