PrimaNota.ru - самый крупный в мире бесплатный архив песенных текстов, аккордов, табулатур и нот


Dave Days - Free Credit Report Cover - таба, видео

Регистрация Запомнить меня
Войти через:  Facebook Google Twitter Vk Yandex Mail.ru

Dave Days - Free Credit Report Cover - таба, видео

Печатать
Просмотров: 129
                                 *********************************
                                     Free Credit Report Cover
                                 *********************************




Tuning is in Dropped D (Low E is the only string tuned differently, one step down to D)
SYMBOL: b=bend, h=hammer on, p=pull off, s=slide 

E|------------| (thinest)
B|------------|
G|-------5--7-|
D|-5--2--5--7-|
A|-5--2--3--5-|
D|-5--2-------| (fattest)
( G, E, C, D ) 

Intro (on acoustic guitar or clean) Chords are just G and C then D is the last chord. 

"Check it out gas prices..."
E|-----------------------------------------------------|
B|--3--1--3--1--3--1--3--1--3--1--3--1--3--1---3-------|
G|--0--0--0--0--0--0--0--0--0--0--0--0--0--0---2-------|
D|--x--2--x--2--x--2--x--2--x--2--x--2--x--2---0-------|
A|--5--3--5--3--5--3--5--3--5--3--5--3--5--3-----------|
D|--5-----5-----5-----5-----5-----5-----5--------------| 

Chorus Guitar 

"F to the R to the E to the..." 
E|--------------------------------------------------------------------------------|
B|--------------------------------------------------------------------------------|
G|------------------------------------------5--5-5--5-5--5-5--5-5--5-5--7-7--7-7--|
D|--5--5-5--5-5--5-5-4--2--2-2--2-2--2-2-4--5--5-5--5-5--5-5--5-5--5-5--7-7--7-7--|
A|--5--5-5--5-5--5-5-4--2--2-2--2-2--2-2-2--3--3-3--3-3--3-3--3-3--3-3--5-5--5-5--|
D|--5--5-5--5-5--5-5-4--2--2-2--2-2--2-2------------------------------------------|

Solo Rhythm Guitar (palm muted)

"F to the R to the E to the..." 
E|----------------------------------------------------------------------|
B|----------------------------------------------------------------------|
G|----------------------------------------------------------------------|
D|---------------------------------4--5-5-5-5-5-5-5-5--5-5-5-5-7-7-7-7--|
A|--5-5-5-5-5-5-5-4--2-2-2-2-2-2-2-2--3-3-3-3-3-3-3-3--3-3-3-3-5-5-5-5--|
D|--5-5-5-5-5-5-5-4--2-2-2-2-2-2-2--------------------------------------| 

Solo Guitar 1

E|-----------------------------------------------7---10---12---14---|
B|---10h12--8p7h8-8p7h8-8-7-8-8-8s12-8p7h8-8p7h8---8----8----8------|
G|------------------------------------------------------------------|
D|------------------------------------------------------------------|
A|------------------------------------------------------------------|
D|------------------------------------------------------------------| 

Solo Guitar 1

E|---19--15h17s19--15h17s19-19-19b20b19--17h19-19-19-19p17-15h17----|
B|------------------------------------------------------------------|
G|------------------------------------------------------------------|
D|------------------------------------------------------------------|
A|------------------------------------------------------------------|
D|------------------------------------------------------------------| 

Solo Guitar 1 

E|------------------------------------------12-14-15---15-----------|
B|---------------------------------12-13-15-------------------------|
G|-----------------9-11-12---12-14----------------------------------|
D|---------9-10-12--------------------------------------------------|
A|---10-12----------------------------------------------------------|
D|------------------------------------------------------------------| 

Solo Guitar 2 (harmony) 

E|----------------------------------------------------------------10---14---15---17----|
B|---13h15--12p10h12-12p10h12-12-10-12-12-12s15-12p10h12-12p10h12---12----12---12------|
G|-------------------------------------------------------------------------------------|
D|-------------------------------------------------------------------------------------|
A|-------------------------------------------------------------------------------------|
D|-------------------------------------------------------------------------------------| 

Solo Guitar 2 (harmony) 

E|---15--12-14-15--12-14-15-15-15b17b15--14h15-15-15-15p14s10-14----|
B|------------------------------------------------------------------|
G|------------------------------------------------------------------|
D|------------------------------------------------------------------|
A|------------------------------------------------------------------|
D|------------------------------------------------------------------| 

Solo Guitar 2 (harmony) 

E|--------------------------------------------------------10--------|
B|------------------------------------------------------------------|
G|------------------------------------------------------------------|
D|------------------------------------------------------------------|
A|------------------------------------------------------------------|
D|------------------------------------------------------------------| 


Добавлено: 03.06.2012
Другие материалы по этой песне:
  • Аккорды и текст

Страница создана 03.06.2012
http://primanota.ru/dave-days/free-credit-report-cover-chords.htm
Привет, Гость.
Предлагаем пройти революционный курс по гитаре.
Подарок от PrimaNota.Ru, забирай!