PrimaNota.ru - самый крупный в мире бесплатный архив песенных текстов, аккордов, табулатур и нот


Dave Days - First Kiss - аккорды и текст, таба, видео

Регистрация Запомнить меня
Войти через:  Facebook Google Twitter Vk Yandex Mail.ru

Dave Days - First Kiss - аккорды и текст, таба, видео

Печатать
Просмотров: 162
First Kiss
Dave Days
First Kiss (Acoustic) - Boy You'll Forget - Dave Days
by Nicola_Rizzo
07/04/2013

Here I am, writing a second Dave's tab
I tried to make it more accurate possible, so enjoy :)

tuning: DADGBE (depress the 6th string)
        654321

x=keep stopped the string while playing
S=silence all the strings
X=tick on the soundboard

Capo 4

Intro: (beginning in the upbeat)
           D
|-------- |x-x-x-x-x-x-x---x-x-x---x-x-x-x-|
|X---X--- |x-x-x-x-x-x-x---x-x-x---x-x-x-x-|
|-------- |6-6-6-7-x-2-2---2-2-2---2-2-2-2-|x2
|-------- |x-x-x-x-x-0-0---0-0-0---0-0-0-0-|
|-------- |4-4-4-5-x-0-0---0-0-0---0-0-0-0-|
|-------- |0-0-0-0-x-0-0---0-0-0---0-0-0-0-|
           Bm                              G               
          |x-x-x-x-x-x-x---x-x-x---x-x-x-x-x-x-x-x-x-x-x-x-x---x-------5---|
          |2-2-2-3-x-x-x---x-x-x---x-x-x-0-0-0-0-0-0-0-0-0-x-S-x-S---------|
          |x-x-x-x-x-2-2---2-2-2---2-2-2-0-0-0-0-0-0-0-0-0-x---x---6-7-----|
          |x-x-x-x-x-x-x---x-x-x---x-x-x-0-0-0-0-0-0-0-0-0-7---7-----------|
          |2-2-2-2-x-2-2---2-2-2---2-2-2-x-x-x-x-x-x-x-x-x-5---5-----------|
          |x-x-x-x-x-x-x---x-x-x---x-x-x-5-5-5-5-5-5-5-5-5-5---5-----------|
           D
          |x-x-x-x-x-x-x---x-x-x---x-x-x---|
          |x-x-x-x-x-x-x---x-x-x---x-x-x---|
          |6-6-6-7-x-2-2---2-2-2---2-2-2---|x2
          |x-x-x-x-x-0-0---0-0-0---0-0-0---|
          |4-4-4-5-x-0-0---0-0-0---0-0-0---|
          |0-0-0-0-x-0-0---0-0-0---0-0-0---|
           Bm                              G
          |x-x-x-x-x-x-x---x-x-x---x-x-x-x-x-x-x-x-x-x-x-x-x---x-----------|
          |2-2-2-3-x-x-x---x-x-x---x-x-x-0-0-0-0-0-0-0-0-0-x-S-x-S---------|
          |x-x-x-x-x-2-2---2-2-2---2-2-2-0-0-0-0-0-0-0-0-0-x---x---5-4-----|
          |x-x-x-x-x-x-x---x-x-x---x-x-x-0-0-0-0-0-0-0-0-0-7---7-------5---|
          |2-2-2-2-x-2-2---2-2-2---2-2-2-x-x-x-x-x-x-x-x-x-5---5-----------|
          |x-x-x-x-x-x-x---x-x-x---x-x-x-5-5-5-5-5-5-5-5-5-5---5-----------|

Verse:
           D
          |--------------------------------|
          |----3-------2-------5-------3---|
          |--2---2---2---2---2---2---2---2-|x2
          |0-------0-------0-------0-------|
          |--------------------------------|
          |--------------------------------|

          Lyrics: She's walking over to me...
           D
          |--------------------------------|
          |----3-------2-------5-------3---|
          |--2---2---2---2---2---2---2---2-|x2
          |0-------0-------0-------0-------|
          |--------------------------------|
          |--------------------------------|
           G                               Bm              A
          |x-x-x-x-x-x-x-x-x-x-x-x-x-x-x-x-x---x-x---x-x-0-0---0-0---0-0-0-|
          |3-3-3-3-3-3-3-3-3-3-3-3-3-3-3-3-3---3-3---3-3-0-2---2-2---2-2-2-|
          |0-0-0-0-0-0-0-0-0-0-0-0-0-0-0-0-4---4-4---4-4-0-2---2-2---2-2-2-|
          |0-0-0-0-0-0-0-0-0-0-0-0-0-0-0-0-4---4-4---4-4-0-2---2-2---2-2-2-|
          |x-x-x-x-x-x-x-x-x-x-x-x-x-x-x-x-2---2-2---2-2-0-0---0-0---0-0-0-|
          |5-5-5-5-5-5-5-5-5-5-5-5-5-5-5-5-x---x-x---x-x-0-x---x-x---x-x-x-|

          |x-x-x-x-x-x-x-x-x-x-x-x-x-x-x-x-|
          |x-x-3-3-x-x-2-2-x-x-5-5-x-x-2-2-|
          |2-2-2-2-2-2-2-2-2-2-2-2-2-2-2-2-|x2
          |0-0-0-0-0-0-0-0-0-0-0-0-0-0-0-0-|
          |0-0-0-0-0-0-0-0-0-0-0-0-0-0-0-0-|
          |0-0-0-0-0-0-0-0-0-0-0-0-0-0-0-0-|

           G                               Bm              A
          |x---x-x---x-x-x-x---x-x---x-x-x-x---x-x---x-x-0-0---0-0---0-0-0-|
          |3---3-3---3-3-3-3---3-3---3-3-3-3---3-3---3-3-0-2---2-2---2-2-2-|
          |0---0-0---0-0-0-0---0-0---0-0-0-4---4-4---4-4-0-2---2-2---2-2-2-|
          |0---0-0---0-0-0-0---0-0---0-0-0-4---4-4---4-4-0-2---2-2---2-2-2-|
          |x---x-x---x-x-x-x---x-x---x-x-x-2---2-2---2-2-0-0---0-0---0-0-0-|
          |5---5-5---5-5-5-5---5-5---5-5-5-x---x-x---x-x-x-x---x-x---x-x-x-|

Pre-chorus:
           Lyrics: Is it cool...
           Em                              G
          |x---x-x---x-x---x-x---x-x-x-x-x-x---x-x---x-x---x-x---x-x-x-x-x-|
          |x---x-x---x-x---x-x---x-x-x-x-x-x---x-x---x-x---x-x---x-x-x-x-x-|
          |x---x-x---x-x---x-x---x-x-x-x-x-x---x-x---x-x---x-x---x-x-x-x-x-|
          |2---2-2---2-2---2-2---2-2-2-2-2-5---5-5---5-5---5-5---5-5-5-5-5-|
          |2---2-2---2-2---2-2---2-2-2-2-2-5---5-5---5-5---5-5---5-5-5-5-5-|
          |2---2-2---2-2---2-2---2-2-2-2-2-5---5-5---5-5---5-5---5-5-5-5-5-|
                                                              
           Em                              G                  Is it cool if I
          |x---x-x---x-x---x-x---x-x-x-x-x-x-x-x-x-x-x-x-x-0---x-x---x-x-0-|
          |x---x-x---x-x---x-x---x-x-x-x-x-x-x-x-x-x-x-x-x-2---x-x---x-x-0-|
          |x---x-x---x-x---x-x---x-x-x-x-x-x-x-x-x-x-x-x-x-2---x-x---x-x-0-|
          |2---2-2---2-2---2-2---2-2-2-2-2-5-5-5-5-5-5-5-5-2---x-x---x-x-0-|
          |2---2-2---2-2---2-2---2-2-2-2-2-5-5-5-5-5-5-5-5-0---x-x---x-x-0-|
          |2---2-2---2-2---2-2---2-2-2-2-2-5-5-5-5-5-5-5-5-x---x-x---x-x-0-|

Chorus:
           Lyrics: Kiss you now...
           D
          |2---2-2---2-2-0-0---0-0---0-0-2-|
          |3---3-3---3-3-3-3---3-3---3-3-3-|                               
          |2---2-2---2-2-2-2---2-2---2-2-2-|x2                           
          |0---0-0---0-0-0-0---0-0---0-0-0-|                             
          |0---0-0---0-0-0-0---0-0---0-0-0-|                                
          |0---0-0---0-0-0-0---0-0---0-0-0-|                                
           Bm                              G                                
          |2---2-2---2-2-0-0---0-0---0-0-x-x---x-x---x-x-x-x---x-------5---|
          |3---3-3---3-3-3-3---3-3---3-3-3-3---3-3---3-3-3-3-S-3-S-2-3-----|
          |4---4-4---4-4-4-4---4-4---4-4-0-0---0-0---0-0-0-0---0-----------|
          |4---4-4---4-4-4-4---4-4---4-4-0-0---0-0---0-0-0-0---0-----------|
          |2---2-2---2-2-2-2---2-2---2-2-x-x---x-x---x-x-x-x---x-----------|
          |x---x-x---x-x-x-x---x-x---x-x-5-5---5-5---5-5-5-5---5-----------|

           D
          |2---2-2---2-2-0-0---0-0---0-0-2-|
          |3---3-3---3-3-3-3---3-3---3-3-3-|                               
          |2---2-2---2-2-2-2---2-2---2-2-2-|x2                           
          |0---0-0---0-0-0-0---0-0---0-0-0-|                             
          |0---0-0---0-0-0-0---0-0---0-0-0-|                                
          |0---0-0---0-0-0-0---0-0---0-0-0-|                                
           Bm                              G                                
          |2---2-2---2-2-0-0---0-0---0-0-x-x---x-x---x-x-x-x---x-----------|
          |3---3-3---3-3-3-3---3-3---3-3-3-3---3-3---3-3-3-3-S-3-S---------|
          |4---4-4---4-4-4-4---4-4---4-4-0-0---0-0---0-0-0-0---0-----------|
          |4---4-4---4-4-4-4---4-4---4-4-0-0---0-0---0-0-0-0---0---5-4-----|
          |2---2-2---2-2-2-2---2-2---2-2-x-x---x-x---x-x-x-x---x-------5---|
          |x---x-x---x-x-x-x---x-x---x-x-5-5---5-5---5-5-5-5---5-----------|

Verse(from the sung part)

Pre-chorus

Chorus

Bridge
           Lyrics: I want to live this moment...
           D                               G
          |----------------------------------------------------------------|
          |--------3---------------3---------------3---------------3-------|
          |----------------------------------------------------------------|x
          |----0-------0-------0-------0-------0-------0-------0-------0---|4
          |----------------------------------------------------------------|
          |0---------------4---------------5---------------5---------------|

           Lyrics:(Is it cool if I kiss you)
           D                               G
          |--------2---------------2---------------2---------------2-------|
          |----------------------------------------------------------------|
          |----------------------------------------------------------------|
          |----0-------0-------0-------0-------0-------0-------0-------0---|
          |----------------------------------------------------------------|
          |0---------------4---------------5---------------5---------------|

           D                               G
          |--------2---------------2---------------2---------------2---x-x-|
          |------------------------------------------------------------x-x-|
          |------------------------------------------------------------0-0-|
          |----0-------0-------0-------0-------0-------0-------0-------0-0-|
          |------------------------------------------------------------x-0-|
          |0---------------4---------------5---------------5-----------5-0-|

           Em                              G
          |x---x---x---x---x---x---x---x-x-x---x---x---x---x---x---x---x-x-|
          |x---x---x---x---x---x---x---x-x-x---x---x---x---x---x---x---x-x-|
          |x---x---x---x---x---x---x---x-x-x---x---x---x---x---x---x---x-x-|
          |2---2---2---2---2---2---2---2-2-5---5---5---5---5---5---5---5-5-|
          |2---2---2---2---2---2---2---2-2-5---5---5---5---5---5---5---5-5-|
          |2---2---2---2---2---2---2---2-2-5---5---5---5---5---5---5---5-5-|

           Em                              G
          |x---x---x---x---x---x---x---x-x-x---x---x---x---x---x-x---x-x-0-|
          |x---x---x---x---x---x---x---x-x-x---x---x---x---2---2-2---x-x-0-|
          |x---x---x---x---x---x---x---x-x-x---x---x---x---2---2-2---x-x-0-|
          |2---2---2---2---2---2---2---2-2-5---5---5---5---2---2-2---x-x-0-|
          |2---2---2---2---2---2---2---2-2-5---5---5---5---0---x-x---x-x-0-|
          |2---2---2---2---2---2---2---2-2-5---5---5---5---0---x-x---x-x-0-|


Pre-ending(XD):
           D
          |2---2-2---2-2-0-0---0-0---0-0-2-|
          |3---3-3---3-3-3-3---3-3---3-3-3-|                               
          |2---2-2---2-2-2-2---2-2---2-2-2-|x2                           
          |0---0-0---0-0-0-0---0-0---0-0-0-|                             
          |0---0-0---0-0-0-0---0-0---0-0-0-|                                
          |0---0-0---0-0-0-0---0-0---0-0-0-|    
           Lyrics: oooh oooh...
           Bm                              G                Is it cool if I
          |2---2-2---2-2-0-0---0-0---0-0-x-x---x-x---x-x-x-x---x-x---x-x-x-|
          |3---3-3---3-3-3-3---3-3---3-3-3-3---3-3---3-3-3-3---3-3---3-3-3-|
          |4---4-4---4-4-4-4---4-4---4-4-0-0---0-0---0-0-0-0---0-0---0-0-0-|
          |4---4-4---4-4-4-4---4-4---4-4-0-0---0-0---0-0-0-0---0-0---0-0-0-|
          |2---2-2---2-2-2-2---2-2---2-2-x-x---x-x---x-x-x-x---x-x---x-x-x-|
          |x---x-x---x-x-x-x---x-x---x-x-5-5---5-5---5-5-5-5---5-5---5-5-5-|

Ending:
           Lyrics:Kiss you now...
           D
          |2---2-2---2-2-0-0---0-0---0-0-2-|
          |3---3-3---3-3-3-3---3-3---3-3-3-|                               
          |2---2-2---2-2-2-2---2-2---2-2-2-|x2                           
          |0---0-0---0-0-0-0---0-0---0-0-0-|                             
          |0---0-0---0-0-0-0---0-0---0-0-0-|                                
          |0---0-0---0-0-0-0---0-0---0-0-0-|    

           Bm                              G       (the difference is here) 
          |2---2-2---2-2-0-0---0-0---0-0-x-x---x-x---x-x-x-x---x-x---x-x-x-|
          |3---3-3---3-3-3-3---3-3---3-3-3-3---3-3---3-3-2-2---2-2---2-2-2-|
          |4---4-4---4-4-4-4---4-4---4-4-0-0---0-0---0-0-0-0---0-0---0-0-0-|
          |4---4-4---4-4-4-4---4-4---4-4-0-0---0-0---0-0-0-0---0-0---0-0-0-|
          |2---2-2---2-2-2-2---2-2---2-2-x-x---x-x---x-x-x-x---x-x---x-x-x-|
          |x---x-x---x-x-x-x---x-x---x-x-5-5---5-5---5-5-5-5---5-5---5-5-5-|

           D
          |2---2-2---2-2-0-0---0-0---0-0-2-|
          |3---3-3---3-3-3-3---3-3---3-3-3-|                               
          |2---2-2---2-2-2-2---2-2---2-2-2-|x2                           
          |0---0-0---0-0-0-0---0-0---0-0-0-|                             
          |0---0-0---0-0-0-0---0-0---0-0-0-|                                
          |0---0-0---0-0-0-0---0-0---0-0-0-|                                
           Bm                              G                                
          |2---2-2---2-2-0-0---0-0---0-0-x-x---x-x---x-x-x-x---x-----------2|
          |3---3-3---3-3-3-3---3-3---3-3-3-3---3-3---3-3-3-3-S-3-S---------3|
          |4---4-4---4-4-4-4---4-4---4-4-0-0---0-0---0-0-0-0---0-----------2|
          |4---4-4---4-4-4-4---4-4---4-4-0-0---0-0---0-0-0-0---0---5-4-----0|
          |2---2-2---2-2-2-2---2-2---2-2-x-x---x-x---x-x-x-x---x-------5---0|
          |x---x-x---x-x-x-x---x-x---x-x-5-5---5-5---5-5-5-5---5-----------0|


The End!

Lyrics:
She's walking over to me I'm too scared to move or look in her eyes
She wants to see me tonight
I'm counting down the minutes they pass like hours stuck in time
Stomachs filled with butterflies

(Is it cool if I kiss you)
I'm counting on chances
(Is it cool if I kiss you)
I'm waiting on time

Is it cool if I kiss you now maybe some way some how
Tell me that you want me more than I know
Hold your breath we don't need to know whats next
I just want to live this moment with you tonight

Can't sleep can't wait to wake up, no I can't wait to start my day
Knowing I will see your face
Over thinking feeling nervous hope I don't slip and screw this up
Worst of all I'd fall in love

Is it cool if I kiss you now maybe some way some how
Tell me that you want me more than I know
Hold your breath we don't need to know whats next
I just want to live this moment with you tonight

I want to live this moment with you
I want this moment to last forever
(Is it cool if I kiss you)

Is it cool if I kiss you now maybe some way some how
Tell me that you want me more than I know
Hold your breath we don't need to know whats next
I just want to live this moment with you tonight


Hope you like it :D
Rate and leave a comment if there's something wrong
Добавлено: 14.06.2013
Другие материалы по этой песне:
  • Аккорды и текст

Страница создана 14.06.2013
http://primanota.ru/dave-days/first-kiss-chords.htm
Привет, Гость.
Предлагаем пройти революционный курс по гитаре.
Подарок от PrimaNota.Ru, забирай!