PrimaNota.ru - самый крупный в мире бесплатный архив песенных текстов, аккордов, табулатур и нот


Dave Clark Five - Ol Sol - бас-таба, видео

Регистрация Запомнить меня
Войти через:  Facebook Google Twitter Vk Yandex Mail.ru

Dave Clark Five - Ol Sol - бас-таба, видео

Печатать
Просмотров: 38
Ol' Sol
The Dave Clark Five
Written by Dave Clark and Denis Payton; released as the B-side to "Everybody 
Knows (I Still Love You)".

Intro:
G|------- ------- ------- -------|------- ------- ------- -------|
D|-------------------------------|-------------------------------|
A|-------------------------------|--------------------7---7---7--|
E|-------------------------------|-------------------------------|



G|------- ------- ------- -------|------- ------- ------- -------|
D|-------------------------------|-------------------------------|
A|5------------------------------|--------------------7---7---7--|
E|-------------------------------|-------------------------------|



G|------- ------- ------- -------|------- ------- ------- -------|
D|-------------------------------|-------------------------------|
A|5------------------------------|------------------------12\----|
E|-------------------------------|-------------------------------|


Verse:
G|------ ------ ------ ------|------ ------ ------ ------|
D|---------------------------|---------------------------|
A|7---7--7---7--7---7--7---7-|7---7--7---7--7---7--7---7-|
E|---------------------------|---------------------------|



G|------ ------ ------ ------|------ ------ ------ ------|
D|---------------------------|---------------------------|
A|7---7--7---7--7---7--7---7-|7---7--7---7--7---7--7---7-|
E|---------------------------|---------------------------|



G|------ ------ ------ ------|------ ------ ------ ------|
D|---------------------------|---------------------------|
A|7---7--7---7--7---7--7---7-|7---7--7---7--7---7/-12\---|
E|---------------------------|---------------------------|



G|------ ------ ------ ------|------ ------ ------ ------|
D|---------------------------|---------------------------|
A|7--------------------------|---------------------14\---|
E|---------------------------|---------------------------|
                                     Ol'    Sol!

Verse:
G|------ ------ ------ ------|------ ------ ------ ------|
D|---------------------------|---------------------------|
A|7---7--7---7--7---7--7---7-|7---7--7---7--7---7--7---7-|
E|---------------------------|---------------------------|



G|------ ------ ------ ------|------ ------ ------ ------|
D|---------------------------|---------------------------|
A|7---7--7---7--7---7--7---7-|7---7--7---7--7---7--7---7-|
E|---------------------------|---------------------------|



G|------ ------ ------ ------|------ ------ ------ ------|
D|---------------------------|---------------------------|
A|7---7--7---7--7---7--7---7-|7---7--7---7--7---7/-14\---|
E|---------------------------|---------------------------|



G|------ ------ ------ ------|------ ------ ------ ------|
D|---------------------------|---------------------------|
A|7--------------------------|---------------------------|
E|---------------------------|---------------------------|
                                     Ol'    Sol!

Bridge:
G|------ ------ ------ ------|------ ------ ------ ------|
D|7---7--7---7--7---7--7---7-|7---7--7---7--7---7--7---7-|
A|---------------------------|---------------------------|
E|---------------------------|---------------------------|



G|------ ------ ------ ------|------ ------ ------ ------|
D|---------------------------|---------------------------|
A|7---7--7---7--7---7--7---7-|7---7--7---7--7---7--7---7-|
E|---------------------------|---------------------------|



G|------ ------ ------ ------|------ ------ ------ ------|
D|9---9--9---9--9---9--9---9-|7---7--7---7--7---7--7---9-|
A|---------------------------|---------------------------|
E|---------------------------|---------------------------|



G|------ ------ ------ ------|------ ------ ------ ------|
D|---------------------------|---------------------------|
A|7--------------------------|---------------------------|
E|---------------------------|---------------------------|
                                     Ol'    Sol!

Break (solo):
G|------ ------ ------ ------|------ ------ ------ ------|
D|---------------------------|---------------------------|
A|7---7--7---7--7---7--7-----|7---7--7---7--7---7--7-----|
E|---------------------------|---------------------------|



G|------ ------ ------ ------|------ ------ ------ ------|
D|---------------------------|---------------------------|
A|7---7--7---7--7---7--7---7-|7---7--7---7--7---7--7---7-|
E|---------------------------|---------------------------|



G|------ ------ ------ ------|------ ------ ------ ------|
D|7---7--7---7--7---7--7---7-|7---7--7---7--7---7--7---7-|
A|---------------------------|---------------------------|
E|---------------------------|---------------------------|



G|------ ------ ------ ------|------ ------ ------ ------|
D|---------------------------|---------------------------|
A|7---7--7---7--7---7--7---7-|7---7--7---7--7---7--7---7-|
E|---------------------------|---------------------------|



G|------ ------ ------ ------|------ ------ ------ ------|
D|9---9--9---9--9---9--9---9-|7---7--7---7--7---7--7---7-|
A|---------------------------|---------------------------|
E|---------------------------|---------------------------|



G|------ ------ ------ ------|------ ------ ------ ------|
D|---------------------------|-------------------------9-|
A|7--------------------------|---------------------------|
E|---------------------------|---------------------------|
                                     Ol'    Sol!


G|------ ------ ------ ------|------ ------ ------ ------|
D|---------------------------|---------------------------|
A|---------------------------|---------------------------|
E|0----------0---------------|0----------0---------------|



G|------ ------ ------ ------|------ ------ ------ ------|
D|---------------------------|---------------------------|
A|---------------------------|---------------------------|
E|0----------0---------------|0----------0---------------|



G|------ ------ ------ ------|------ ------ ------ ------|
D|---------------------------|---------------------------|
A|---------------------------|---------------------------|
E|5----------5---------------|5----------5---------------|



G|------ ------ ------ ------|------ ------ ------ ------|
D|---------------------------|---------------------------|
A|---------------------------|---------------------------|
E|0----------0---------------|0----------0---------------|



G|------ ------ ------ ------|------ ------ ------ ------|
D|---------------------------|---------------------------|
A|---------------------------|---------------------------|
E|7----------7---------------|5----------5---------------|



G|------ ------ ------ ------|------ ------ ------ ------|
D|---------------------------|---------------------------|
A|---------------------------|-----------7--7---7--------|
E|---------------------------|---------------------------|


Verse:
G|------ ------ ------ ------|------ ------ ------ ------|
D|---------------------------|---------------------------|
A|7---7--7---7--7---7--7---7-|7---7--7---7--7---7--7---7-|
E|---------------------------|---------------------------|



G|------ ------ ------ ------|------ ------ ------ ------|
D|---------------------------|---------------------------|
A|7---7--7---7--7---7--7---7-|7---7--7---7--7---7--7---7-|
E|---------------------------|---------------------------|



G|------ ------ ------ ------|------ ------ ------ ------|
D|---------------------------|---------------------------|
A|7---7--7---7--7---7--7---7-|7---7--7---7--7---7/-12\---|
E|---------------------------|---------------------------|



G|------ ------ ------ ------|------- ------- ------- -------|
D|---------------------------|-------------------------------|
A|7--------------------------|--------------------7---7---7--|
E|---------------------------|-------------------------------|


Outro:
G|------- ------- ------- -------|------- ------- ------- -------|
D|-------------------------------|-------------------------------|
A|5------------------------------|--------------------7---7---7--|
E|-------------------------------|-------------------------------|



G|------- ------- ------- -------|------- ------- ------- -------|
D|-------------------------------|-------------------------------|
A|5------------------------------|--------------------7---7---7--|
E|-------------------------------|-------------------------------|



G|------- ------- ------- -------|------- ------- ------- -------|
D|-------------------------------|-------------------------------|
A|5------------------------------|--------------------5---5---5--|
E|-------------------------------|-------------------------------|



G|------- ------- ------- -------|------- ------- ------- -------|
D|-------------------------------|-------------------------------|
A|7------------------------------|-------------------------------|
E|-------------------------------|-------------------------------|
          Oopsie, baby!

Please e-mail me for any corrections, or write a comment.
Добавлено: 08.05.2016
Другие материалы по этой песне:
  • Аккорды и текст

Страница создана 08.05.2016
http://primanota.ru/dave-clark-five/ol-sol-chords.htm
Привет, Гость.
Предлагаем пройти революционный курс по гитаре.
Подарок от PrimaNota.Ru, забирай!