PrimaNota.ru - самый крупный в мире бесплатный архив песенных текстов, аккордов, табулатур и нот


Dave Brubeck - Theme From Mr Broadway - таба, видео

Регистрация Запомнить меня
Войти через:  Facebook Google Twitter Vk Yandex Mail.ru

Dave Brubeck - Theme From Mr Broadway - таба, видео

Печатать
Просмотров: 73
-------------------------------------------------------------------------------
                     Theme From Mr. Broadway - Dave Brubeck
-------------------------------------------------------------------------------
Tuning: Standard
Time Signature: 3/4

  Eb7          Ab7          Eb7          Bb7
e|------------|------------|------------|------------|
B|------------|------------|------------|------------|
G|----8-------|------------|------------|------------|
D|7-8---8-7-6-|----6---7---|8-----------|------------|
A|------------|9-6---6---6-|--6---------|------------|
E|------------|------------|--------9-6-|9-6---------|

  Eb7          Ab7          Eb7        
e|------------|------------|------------|------------|
B|------------|------------|------------|------------|
G|----8-------|------------|------------|------------|
D|7-8---8-7-6-|----6---7---|8-----------|------------|
A|------------|9-6---6---6-|------------|------------|
E|------------|------------|--------9-6-|9-6---------|

  Ab7          Ebm7         Ab7
e|------------|------------|------------|------------|
B|7---7---7---|------------|------------|------------|
G|--8---8---8-|6---6---6---|------------|------------|
D|------------|--8---8---8-|6-8---------|------------|
A|------------|------------|--------6-6-|9-6---------|
E|------------|------------|------------|------------|

  Eb7          Fm7          Gb6          C7
e|------------|------------|------------|------------|
B|------------|------------|------------|------------|
G|------------|------------|------------|------6-5---|
D|------------|------------|------8-6---|8-5-8-------|
A|------8-6---|6---6-9-8---|9-6-9-------|------------|
E|9-6-9-------|--8---------|------------|------------|

  F7                        E7
e|------------|------------|------------|------------|
B|----6-----6-|----6-----6-|----5-----5-|----5-----5-|
G|4-5---4-5---|4-5---4-5---|3-4---3-4---|3-4---3-4---|
D|------------|------------|------------|------------|
A|------------|------------|------------|------------|
E|------------|------------|------------|------------|

  Eb7          Cm7          F7           Bb7
e|------------|------------|------------|------------|
B|----4-7-6-4-|6-------4-7-|6-4-6-------|4-7-6-4-6---|
G|2-3---------|----2-3-----|--------2-3-|------------|
D|------------|------------|------------|------------|
A|------------|------------|------------|------------|
E|------------|------------|------------|------------|

Добавлено: 05.12.2015
Другие материалы по этой песне:
  • Аккорды и текст

Страница создана 05.12.2015
http://primanota.ru/dave-brubeck/theme-from-mr-broadway-chords.htm
Привет, Гость.
Предлагаем пройти революционный курс по гитаре.
Подарок от PrimaNota.Ru, забирай!