PrimaNota.ru - самый крупный в мире бесплатный архив песенных текстов, аккордов, табулатур и нот


Dave Brubeck - Take 5 - аккорды и текст, таба, видео

Регистрация Запомнить меня
Войти через:  Facebook Google Twitter Vk Yandex Mail.ru

Dave Brubeck - Take 5 - аккорды и текст, таба, видео

Печатать
Просмотров: 338
Уроки эстрадного вокала в Санкт-Петербурге
Take 5
Dave Brubeck
		   take 5

    it all starts of with that catchy drum beat
    then busts out into a piano melody that is played like this
    on the guitar

     D#m D#m   D#11
-----6---6-----6---------6---6-----6----
-----7---7-----6---------7---7-----6----
-----8---8-----6---------8---8-----6----
-----8---8-----6---------8---8-----6----
---6-6-6-6-----6-------6-6-6-6-----6----
-----6---6--6--6---------6---6--6--6----

    This is the background music for the whole song
    the saxophone solo goes like this on the guitar
    (this was figured out by using the D#m pentatonic scale)

---------------------------------------------------------------
------------------11-------------------------------------------
---------11-13/14----13-11----------------------11-------------
------13-------------------13-11-------11h13-------13-11-11h13-
---13----------------------------11h13-------------------------
---------------------------------------------------------------

--------------------------------------------------------------
------------------11------------------------------------------
---------11-13/14----13-11---------------------11-------------
------13-------------------13-11-11h13------------13-11-11h13-
---13----------------------------------11-11h13---------------
--------------------------------------------------------------

--11-14-11----------------11-13-------------
-----------14-12-11-12-14-------14-12-11----
-----------------------------------------13-
--------------------------------------------
--------------------------------------------
--------------------------------------------

-----------11----------------------------
--11-12-14----12-11----------11-12-14-14-
-------------------13-11-13--------------
-----------------------------------------
-----------------------------------------
-----------------------------------------

------------11-13-14-11----------------11-13-
---14-12-14-------------14-12-11-12-14-------
---------------------------------------------
---------------------------------------------
---------------------------------------------
---------------------------------------------

---------------------11----------------------
14-12-11----11-12-14----12-11-------14-12-11-
---------13-------------------13-11----------
---------------------------------------------
---------------------------------------------
---------------------------------------------

---------------------------------------------------------------
------------------11-------------------------------------------
---------11-13/14----13-11----------------------11-------------
------13-------------------13-11-------11h13-------13-11-11h13-
---13----------------------------11h13-------------------------
---------------------------------------------------------------

---------------------------------------------------------------
------------------11-------------------------------------------
---------11-13/14----13-11----------------------11-------------
------13-------------------13-11-11h13-------------13-11-11h13-
---13----------------------------------11-11h13----------------
---------------------------------------------------------------


after this I usually just mess with the D#m Scales untill the drummer nods for his solo
then I play the piano medley

And whoever submitted the original tab for this did a horrible job tabbing


The_guitarman_forgod@hotmail.com
anyone who wants to chat can hook up with me at msn messenger     
Добавлено: 27.08.2013
Вам также может быть интересно:
Другие материалы по этой песне:
  • Аккорды и текст

Страница создана 30.06.2012
http://primanota.ru/dave-brubeck/take-5-chords.htm
Привет, Гость.
Предлагаем пройти революционный курс по гитаре.
Подарок от PrimaNota.Ru, забирай!