PrimaNota.ru - самый крупный в мире бесплатный архив песенных текстов, аккордов, табулатур и нот


Dave Brubeck - Blue Rondo A La Turk - таба, видео

Регистрация Запомнить меня
Войти через:  Facebook Google Twitter Vk Yandex Mail.ru

Dave Brubeck - Blue Rondo A La Turk - таба, видео

Печатать
Просмотров: 210
Авторы музыки: Dave Brubeck

Blue Rondo A A Turk by Dave Brubeck
Corrected by Erdem Koca, for any comments; erdemkoca@hotmail.com
 

Blue Rondo A A Turk
Dave Brubeck
tab by Doug Ahern, ahern@harpo.dev.uga.edu
 
It was pointed out to me that in my first posting of this song,
the tab notation was confusing.  Where the first line looked like:
|--1--2--1--2--1--2--3--|.  This is the 9/8 time broken down, I don't
know how it would sound if played on some string (I'll have to try it
out though :-) ).  To remedy, I've taken out the dashes.
 

first part:
9/8
E --------------------|--------------------|
B --------------------|--------------------|
G -2---2---2----------|-2---2---2---3-2----|
D ---3---3---3-2-3-5--|---3---3---3-----5--|
A --------------------|--------------------|
E --------------------|--------------------|
 
9/8
E --------------------|--------------------|
B --------------------|--------------------|
G -2---2---2----------|-----2---2-3-2-3-5--|
D ---3---3---3-2-3-5--|-3-5---5------------|
A --------------------|--------------------|
E --------------------|--------------------|
 

second part:
9/8
E --------------------|--------------------|
B --------------------|--------------------|
G -5---5---5----------|-5---5---5---7-5-4--|
D ---7---7---7-6-7-9--|---7---7---7--------|
A --------------------|--------------------|
E --------------------|--------------------|
 
9/8
E --------------------|--------------------|
B --------------------|--------------------|
G -5---5---5----------|-----5---5-7-5-7-9--|
D ---7---7---7-6-7-9--|-7-9---9------------|
A --------------------|--------------------|
E --------------------|--------------------|
 

third part
9/8
E ----------------------|---------------------|
B ----------------------|---------------------|
G --------7----9-7-9-10-|-9---7---------------|
D -7-10-9---10----------|--10---9-10-7-10-9-7-|
A ----------------------|---------------------|
E ----------------------|---------------------|
 
9/8
E ----------------------|---------------------|
B ----------------------|---------------------|
G --------7----9-7-9-10-|-9-7----7------------|
D -7-10-9---10----------|-----10---10-9-10-9-7|
A ----------------------|---------------------|
E ----------------------|---------------------|

     
Добавлено: 30.07.2013
Другие материалы по этой песне:

Страница создана 09.06.2012
http://primanota.ru/dave-brubeck/blue-rondo-a-la-turk-chords.htm
Привет, Гость.
Предлагаем пройти революционный курс по гитаре.
Подарок от PrimaNota.Ru, забирай!