PrimaNota.ru - самый крупный в мире бесплатный архив песенных текстов, аккордов, табулатур и нот


Dave Brockie Experience - You Want To Suck My Dick - бас-таба, видео

Регистрация Запомнить меня
Войти через:  Facebook Google Twitter Vk Yandex Mail.ru

Dave Brockie Experience - You Want To Suck My Dick - бас-таба, видео

Печатать
Просмотров: 268
bass comes in
G|------------------------------------------------------------|
D|---------------5-3-1----------------------------------------|
A|-5-3-1-1-1-1-1-------------5-1-1-1-----5-1-1-1--------------|
E|---------------------1-1-1---------3-1----------------------|

Suck my...

G|------------------------------------------------------------|
D|-----3(x12)-------------------------------------------------|
A|------------------------------------------------------------|
E|-3-1--------------------------------------------------------|

But Im not Gay just do the () part about 4 times pause after
 each

G|------------------------------------------------------------|
D|------------------------------------------------------------|
A|-(3-3-3-5-3)-3-5-3-3-3-5------------------------------------|
E|------------------------------------------------------------|
Добавлено: 04.05.2012
Другие материалы по этой песне:
  • Аккорды и текст

Страница создана 04.05.2012
http://primanota.ru/dave-brockie-experience/you-want-to-suck-my-dick-chords.htm
Привет, Гость.
Предлагаем пройти революционный курс по гитаре.
Подарок от PrimaNota.Ru, забирай!