PrimaNota.ru - самый крупный в мире бесплатный архив песенных текстов, аккордов, табулатур и нот


Dave Brockie Experience - Shatilla - таба, видео

Регистрация Запомнить меня
Войти через:  Facebook Google Twitter Vk Yandex Mail.ru

Dave Brockie Experience - Shatilla - таба, видео

Печатать
Просмотров: 118
Another quick thrashy song by DBX. Great lyrics, but just
too short...

All strings tuned half-step down.


INTRO/CHORUS
|Guitar 1
|--------------------------------------|
|--------------------------------------|
|--2-2-2--2-2-2------------------------|
|--2-2-2--2-2-2------------------------|
|--0-0-0--0-0-0-0-0-0-0-0-0-0-0-0-0-0--|
|--------------------------------------| x4
|
|Guitar 2
|--------------------------------------------|
|--------------------------------------------|
|--14-14-14--14-14-14------------------------|
|--14-14-14--14-14-14------------------------|
|--12-12-12--12-12-12-0-0-0-0-0-0-0-0-0-0-0--|
|--------------------------------------------| x4


VERSE
|-------------------------------|
|-------------------------------|
|--11-11--12-12--11-11--9-11-9--|
|--11-11--12-12--11-11--9-11-9--|
|---9--9--10-10---9--9--7--9-7--|
|-------------------------------| x3

|---------------------------------|
|---------------------------------|
|--11-11--12-12--14---------------|
|--11-11--12-12--14--\\PICK-\\----|
|---9--9--10-10--12---\\SLIDE\\---|
|----------------------\\DOWN-\\--|


Repeat    INTRO/CHORUS


VERSE II
|-----------------------------------------|
|-----------------------------------------|
|--11-11-11--12-12-12--11-11-11--9--11-9--|
|--11-11-11--12-12-12--11-11-11--9--11-9--|
|---9--9--9--10-10-10---9--9--9--7---9-7--|
|-----------------------------------------| x3

|---------------------------------------|
|---------------------------------------|
|--11-11-11--12-12-12--11---------------|
|--11-11-11--12-12-12--11--\\PICK-\\----|
|---9--9--9--10-10-10---9---\\SLIDE\\---|
|----------------------------\\DOWN-\\--|


INTERLUDE
|--------------------------------|
|--------------------------------|
|--12-----14-15-14-----14-15-14--|
|--12-----14-15-14-----14-15-14--|
|--10-----12-13-12-----12-13-12--|
|--------------------------------| x2

|------------------------------------------|
|------------------------------------------|
|--12-12-12--14-15-14--12-12-12--14-15-14--|
|--12-12-12--14-15-14--12-12-12--14-15-14--|
|--10-10-10--12-13-12--10-10-10--12-13-12--|
|------------------------------------------| x4


Repeat    INTRO/CHORUS x2


ENDING
|Guitar 1
|---------------------------------------|
|---------------------------------------|
|--2~~----------------------------------|
|--2~~----------------------------------|
|--0~~----------------------------------|
|-------------------3b-0----------------|
|
|Guitar 2
|---------------------------------------|
|---------------------------------------|
|--2~~----------------------------------|
|--2~~----------------------------------|
|--0~~----------------------------5h7~--|
|-------------------------3b-0----------|


Legend
========
~    | Hold Note
b    | Bend Note
h    | Hammer-On


And that's it. Another quick song from DBX's second album.
Feedback is welcomed.

-- DH
=============================================================
Добавлено: 28.02.2012
Другие материалы по этой песне:
  • Аккорды и текст

Страница создана 28.02.2012
http://primanota.ru/dave-brockie-experience/shatilla-chords.htm
Привет, Гость.
Предлагаем пройти революционный курс по гитаре.
Подарок от PrimaNota.Ru, забирай!