PrimaNota.ru - самый крупный в мире бесплатный архив песенных текстов, аккордов, табулатур и нот


Dave Brockie Experience - Medieval Werewolf - таба, видео

Регистрация Запомнить меня
Войти через:  Facebook Google Twitter Vk Yandex Mail.ru

Dave Brockie Experience - Medieval Werewolf - таба, видео

Печатать
Просмотров: 85
Уроки эстрадного вокала в Санкт-Петербурге
All strings tuned helf-step down.


INTRO
|---------------------------------------------------|     |-------|
|---------------------------------------------------|     |-------|
|---------------------------------------------------|     |-------|
|---------------------------------------------------|     |-------|
|--12-12-12-12-12-12-12-12-12-12-12-12-12-12-12-12--| x2  |--0~~--|
|---------------------------------------------------|     |-------| x4

|------------------------|
|------------------------|
|--14\--------------2~~--|
|---x---------------2~~--|
|--12\--------------0~~--|
|------------------------| x2

|---------------------------------------|
|---------------------------------------|
|--14\----14\----14\--14\--14-14-14-14--|
|---x------x------x----x----x--x--x--x--|
|--12\----12\----12\--12\--12-12-12-12--|
|---------------------------------------|


PRE-VERSE
|----------------------------------------|
|------13~----15~----13~----13~-13~------|
|--/14-----14-----14-----14---------14\--|
|----------------------------------------|
|----------------------------------------|
|----------------------------------------| x3

|----------------------------------------------------------|
|------13~----15~----13------------------------------------|
|--/14-----14-----14---------------------------------------|
|----------------------------------------------------------|
|-----------------------12-12-12-12-12-12-12-12-12-12-12\--|
|----------------------------------------------------------|

|-----------------------------------------------------------------------|
|----------------12~~---------------------------------------------------|
|--2~~--------12--------------------------------------------------------|
|--2~~-----12-----------------------------------------------------------|
|--0~~-----------------12-12-12-12-12-12-12-12-12-12-12-12-12-12-12-12--|
|-----------------------------------------------------------------------| x2

|-----------------------------------|
|-----------------------------------|
|-----------------------------------|
|-----------------------------------|
|--0-0-3-0-0-0-5-0-0-0-3-0-0-0---0--|
|------------------------------3----| x3

|------------------------------|
|------------------------------|
|------------------------9-7~--|
|------------------------9-7~--|
|--0-0-3-0-0-0-5-0-0-----7-5~--|
|------------------------------|


VERSE
|---------------------------------------------------------------|
|---------------------------------------------------------------|
|--9\7-5-5-5-5-5-5-5-5-5-5-5-5-7-7-7-7-7-7-7-7------------9-7~--|
|--9\7-5-5-5-5-5-5-5-5-5-5-5-5-7-7-7-7-7-7-7-7------------9-7~--|
|--7\5-3-3-3-3-3-3-3-3-3-3-3-3-5-5-5-5-5-5-5-5--0-3-0-3-0-7-5~--|
|---------------------------------------------------------------|

|---------------------------------------------------------------|
|---------------------------------------------------------------|
|--9\7-5-5-5-5-5-5-5-5-5-5-5-5-7-7-7-7-7-7-7-7------------9-7~--|
|--9\7-5-5-5-5-5-5-5-5-5-5-5-5-7-7-7-7-7-7-7-7------------9-7~--|
|--7\5-3-3-3-3-3-3-3-3-3-3-3-3-5-5-5-5-5-5-5-5--0-3-0-3-0-7-5~--|
|---------------------------------------------------------------|
PM       . . .   . .   . . . .   . .   . .   

|---------------------------------------------------------------|
|---------------------------------------------------------------|
|--9\7-5-5-5-5-5-5-5-5-5-5-5-5-7-7-7-7-7-7-7-7------------9-7~--|
|--9\7-5-5-5-5-5-5-5-5-5-5-5-5-7-7-7-7-7-7-7-7------------9-7~--|
|--7\5-3-3-3-3-3-3-3-3-3-3-3-3-5-5-5-5-5-5-5-5--0-3-0-3-0-7-5~--|
|---------------------------------------------------------------|

|---------------------------------------------------------------|
|---------------------------------------------------------------|
|--9\7-5-5-5-5-5-5-5-5-5-5-5-5-7-7-7-7-7-7-7-7-7-7-7-7-7-7-7-7--|
|--9\7-5-5-5-5-5-5-5-5-5-5-5-5-7-7-7-7-7-7-7-7-7-7-7-7-7-7-7-7--|
|--7\5-3-3-3-3-3-3-3-3-3-3-3-3-5-5-5-5-5-5-5-5-5-5-5-5-5-5-5-5--|
|---------------------------------------------------------------|
PM       . . .   . .   . . . .   . .   . .   


CHORUS
|------------------0------------------------------|
|-------6------------0~---------------------------|
|--5--5---5~--4--4--------7--7--7--7--7--7--7--7--|
|--5--5-------4--4--------7--7--7--7--7--7--7--7--|
|--3--3-------2--2--------5--5--5--5--5--5--5--5--|
|--3--3-------2--2--------------------------------| x2

|------------------0------------------------------|
|-------6------------0~---------------------------|
|--5--5---5~--9--9--------7--7--7--7--7--7--7--7--|
|--5--5-------x--x--------7--7--7--7--7--7--7--7--|
|--3--3-------7--7--------5--5--5--5--5--5--5--5--|
|--3--3-------------------------------------------|

|------------------0------------------------------------------------|
|-------6------------0~---------------------------------------------|
|--5--5---5~--9--9--------5-5-----5-5-5-----5-5-5-------------9-7~--|
|--x--x-------x--x--------5-5--7--5-5-5--7--5-5-5--7-5-7------9-7~--|
|--3--3-------7--7--------3-3--7--3-3-3--7--3-3-3--7-5-7------7-5~--|
|------------------------------5---------5---------5-3-5------------|


SECOND VERSE
|---------------------------------------------------------------|
|---------------------------------------------------------------|
|--9\7-5-5-5-5-5-5-5-5-5-5-5-5-7-7-7-7-7-7-7-7------------9-7~--|
|--9\7-5-5-5-5-5-5-5-5-5-5-5-5-7-7-7-7-7-7-7-7------------9-7~--|
|--7\5-3-3-3-3-3-3-3-3-3-3-3-3-5-5-5-5-5-5-5-5--0-3-0-3-0-7-5~--|
|---------------------------------------------------------------|

|---------------------------------------------------------------|
|---------------------------------------------------------------|
|--9\7-5-5-5-5-5-5-5-5-5-5-5-5-7-7-7-7-7-7-7-7------------9-7~--|
|--9\7-5-5-5-5-5-5-5-5-5-5-5-5-7-7-7-7-7-7-7-7------------9-7~--|
|--7\5-3-3-3-3-3-3-3-3-3-3-3-3-5-5-5-5-5-5-5-5--0-3-0-3-0-7-5~--|
|---------------------------------------------------------------|
PM       . . .   . .   . . . .   . .   . .   

|---------------------------------------------------------------|
|---------------------------------------------------------------|
|--9\7-5-5-5-5-5-5-5-5-5-5-5-5-7-7-7-7-7-7-7-7------------9-7~--|
|--9\7-5-5-5-5-5-5-5-5-5-5-5-5-7-7-7-7-7-7-7-7------------9-7~--|
|--7\5-3-3-3-3-3-3-3-3-3-3-3-3-5-5-5-5-5-5-5-5--0-3-0-3-0-7-5~--|
|---------------------------------------------------------------|

|-----------------------------------------------|
|-----------------------------------------------|
|--9\7-5-5-5-5-5-5-5-5-5-5-5-5-7-7-7-7-7-7-7-7--|
|--9\7-5-5-5-5-5-5-5-5-5-5-5-5-7-7-7-7-7-7-7-7--|
|--7\5-3-3-3-3-3-3-3-3-3-3-3-3-5-5-5-5-5-5-5-5--|
|-----------------------------------------------|
PM       . . .   . .   . . . .   . .   . . . .


INTERLUDE
|--------------------------------------------------------------------------|
|--------------------------------------------------------------------------|
|--------------------------------------------------------------------------|
|-5-5-5-5---3-3-2~---5-5-5-5---3-3-2~---2-3-5--5-5-5p3-3--3-3-3p2--2-2-0~--|
|--------------------------------------------------------------------------|
|--------------------------------------------------------------------------|

|------------------------------------------------------------------------|
|------------------------------------------------------------------------|
|------------------------------------------------------------------------|
|--3-3-3-3p2-2-2-0~---3-3-3-3p2-2-2-0~---2-3-5-5-5-5p3-3-3-3-3p2-2-2-0~--|
|------------------------------------------------------------------------|
|------------------------------------------------------------------------|

|------------------|
|------------------|
|------------9-7~--|
|------------9-7~--|
|--0-3-0-3-0-7-5~--|
|------------------|


Repeat    VERSE


FINAL CHORUS
|------------------0------------------------------|
|-------6------------0~---------------------------|
|--5--5---5~--4--4--------7--7--7--7--7--7--7--7--|
|--5--5-------4--4--------7--7--7--7--7--7--7--7--|
|--3--3-------2--2--------5--5--5--5--5--5--5--5--|
|--3--3-------2--2--------------------------------| x2

|------------------0------------------------------|
|-------6------------0~---------------------------|
|--5--5---5~--9--9--------7--7--7--7--7--7--7--7--|
|--5--5-------x--x--------7--7--7--7--7--7--7--7--|
|--3--3-------7--7--------5--5--5--5--5--5--5--5--|
|--3--3-------------------------------------------|

|------------------0--------------------------------------|
|-------6------------0~-----------------------------------|
|--5--5---5~--9--9--------5-5-----5-5-5-----5-5-5---------|
|--x--x-------x--x--------5-5--7--5-5-5--7--5-5-5--7-5-7--|
|--3--3-------7--7--------3-3--7--3-3-3--7--3-3-3--7-5-7--|
|------------------------------5---------5---------5-3-5--|




Legend 
======== 
~    | Hold Note
x    | Mute Note
\    | Slide Down
/    | Slide Up
PM   | Palm Muting 
p    | Pull-Off



Feedback and requests (DBX/GWAR/X-Cops/Death Piggy tabs only) are welcomed.

--DH
====================================================
Добавлено: 23.06.2012
Другие материалы по этой песне:
  • Аккорды и текст

Страница создана 23.06.2012
http://primanota.ru/dave-brockie-experience/medieval-werewolf-chords.htm
Привет, Гость.
Предлагаем пройти революционный курс по гитаре.
Подарок от PrimaNota.Ru, забирай!