PrimaNota.ru - самый крупный в мире бесплатный архив песенных текстов, аккордов, табулатур и нот


Dave Brockie Experience - March Of The Faggot Soldiers - таба, видео

Регистрация Запомнить меня
Войти через:  Facebook Google Twitter Vk Yandex Mail.ru

Dave Brockie Experience - March Of The Faggot Soldiers - таба, видео

Печатать
Просмотров: 93
Another great DBX song, and another favorite of mine. 
I'm also working on a Guitar Pro tab for it.


All strings tuned half-step down.



INTRO
|------------------------------------------|
|------------------------------------------|
|--14~~--9~~--10~~--7~~--9~~--5~~--7~~~~---|
|--14~~--9~~--10~~--7~~--9~~--5~~--7~~~~---|
|--12~~--7~~---8~~--5~~--7~~--3~~--5~~~~---|
|------------------------------------------|


PRE-VERSE
|-------------------------------------------------|
|-------------------------------------------------|
|-------------------------------------------------|
|--10-9-7--7-7-7-7--7-7-7-7--7-7-7-7-7-7-7-7-7-7--|
|--10-9-7--7-7-7-7--7-7-7-7--7-7-7-7-7-7-7-7-7-7--|
|---8-7-5--5-5-5-5--5-5-5-5--5-5-5-5-5-5-5-5-5-5--|
PM         . . . .  . . . .  . . . . . . . . . .

|---------------------------------------|
|---------------------------------------|
|---------------------------------------|
|--7-7-7-7--7-7-7-7--7-7-7-7-7-7-7-7-7--|
|--7-7-7-7--7-7-7-7--7-7-7-7-7-7-7-7-7--|
|--5-5-5-5--5-5-5-5--5-5-5-5-5-5-5-5-5--| x3
PM . . . .  . . . .  . . . . . . . . .


FIRST VERSE
|------------------------------------------------------------|
|------------------------------------------------------------|
|------------------------------------------------------------|
|-------------------------------2-2-2-4-5-2-0-2-5-2-0-2-2~~--|
|--0-0-0-2-3-2---0-3-0---0-0~~-------------------------------|
|--------------x-------3-------------------------------------|

|------------------------------------------------------|
|------------------------------------------------------|
|--14-14-14-14--14-14-14-14--14-14-14-14--14-14-14-14--|
|--14-14-14-14--14-14-14-14--14-14-14-14--14-14-14-14--|
|--12-12-12-12--12-12-12-12--12-12-12-12--12-12-12-12--|
|------------------------------------------------------|

|------------------------|
|------------------------|
|--------5--5--7--7------|
|--7--7--5--5--7--7--7---|
|--7--7--3--3--5--5--7---|
|--5--5--------------5---|

|------------------------------------------------------------|
|------------------------------------------------------------|
|------------------------------------------------------------|
|-------------------------------2-2-2-4-5-2-0-2-5-2-0-2-2~~--|
|--0-0-0-2-3-2---0-3-0---0-0~~-------------------------------|
|--------------3-------3-------------------------------------|

|------------------------------------------------------|
|------------------------------------------------------|
|--14-14-14-14--14-14-14-14--14-14-14-14--14-14-14-14--|
|--14-14-14-14--14-14-14-14--14-14-14-14--14-14-14-14--|
|--12-12-12-12--12-12-12-12--12-12-12-12--12-12-12-12--|
|------------------------------------------------------|

|-----------------------|
|-----------------------|
|--------5--5--7--7-----|
|--7--7--5--5--7--7--7--|
|--7--7--3--3--5--5--7--|
|--5--5--------------5--|


CHORUS
|---------------------------------------------------|
|---------------------------------------------------|
|---------------------------9--9~~--9-12-9-12--9~~--|
|--7--7~~--7-10-7-10--7~~---9--9~~--9-12-9-12--9~~--|
|--7--7~~--7-10-7-10--7~~---7--7~~--7-10-7-10--7~~--|
|--5--5~~--5--8-5--8--5~~---------------------------|

|--------------------------------------------------|
|--------------------------------------------------|
|------5-5-----------------------------------------|
|--7-7---------5-5-----3-3-------------------------|
|----------7-7-----5-5-----3-3-5-3-5--5~~--3-2-0~--|
|--------------------------------------------------|


SECOND VERSE
|------------------------------------------------------------|
|------------------------------------------------------------|
|------------------------------------------------------------|
|-------------------------------2-2-2-4-5-2-0-2-5-2-0-2-2~~--|
|--0-0-0-2-3-2---0-3-0---0-0~~-------------------------------|
|--------------3-------3-------------------------------------|

|------------------------------------------------------|
|------------------------------------------------------|
|--14-14-14-14--14-14-14-14--14-14-14-14--14-14-14-14--|
|--14-14-14-14--14-14-14-14--14-14-14-14--14-14-14-14--|
|--12-12-12-12--12-12-12-12--12-12-12-12--12-12-12-12--|
|------------------------------------------------------|

|-----------------------|
|-----------------------|
|--------5--5--7--7-----|
|--7--7--5--5--7--7--7--|
|--7--7--3--3--5--5--7--|
|--5--5--------------5--|


CHORUS
|---------------------------------------------------|
|---------------------------------------------------|
|---------------------------9--9~~--9-12-9-12--9~~--|
|--7--7~~--7-10-7-10--7~~---9--9~~--9-12-9-12--9~~--|
|--7--7~~--7-10-7-10--7~~---7--7~~--7-10-7-10--7~~--|
|--5--5~~--5--8-5--8--5~~---------------------------|

|-----------------------------------------------------|
|-----------------------------------------------------|
|------5-5--------------------------------------------|
|--7-7---------5-5-----3-3--------------------10-9-7--|
|----------7-7-----5-5-----3-3-5-3-5--5~~-----10-9-7--|
|----------------------------------------------8-7-5--|


INTERLUDE
|---------------------------------------|
|---------------------------------------|
|---------------------------------------|
|--7-7-7-7--7-7-7-7--7-7-7-7-7-7-7-7-7--|
|--7-7-7-7--7-7-7-7--7-7-7-7-7-7-7-7-7--|
|--5-5-5-5--5-5-5-5--5-5-5-5-5-5-5-5-5--| x10
PM . . . .  . . . .  . . . . . . . . .


LAST VERSE
|------------------------------------------------------------|
|------------------------------------------------------------|
|------------------------------------------------------------|
|-------------------------------2-2-2-4-5-2-0-2-5-2-0-2-2~~--|
|--0-0-0-2-3-2---0-3-0---0-0~~-------------------------------|
|--------------3-------3-------------------------------------|

|------------------------------------------------------|
|------------------------------------------------------|
|--14--14--9--9--10--10--7--7--9--9--5--5--7--7--4--4--|
|--14--14--9--9--10--10--7--7--9--9--5--5--7--7--4--4--|
|--12--12--7--7---8---8--5--5--7--7--3--3--5--5--2--2--|
|------------------------------------------------------|

|------------------------------|
|------------------------------|
|--14--14--9--9--10--10--7--7--| "Then we decide against it..."
|--14--14--9--9--10--10--7--7--|
|--12--12--7--7---8---8--5--5--|
|------------------------------|


CHORUS
|---------------------------------------------------|
|---------------------------------------------------|
|---------------------------9--9~~--9-12-9-12--9~~--|
|--7--7~~--7-10-7-10--7~~---9--9~~--9-12-9-12--9~~--|
|--7--7~~--7-10-7-10--7~~---7--7~~--7-10-7-10--7~~--|
|--5--5~~--5--8-5--8--5~~---------------------------|

|-------------------------------------------------------------------|
|-------------------------------------------------------------------|
|------5-5-----------------------------5-5--------------------------|
|--7-7---------5-5-----3-3---------7-7---------5-5-----3-3----------|
|----------7-7-----5-5-----3-3-5-5---------7-7-----5-5-----3-3-5-5--|
|-------------------------------------------------------------------|

|------------------------------------------------------|
|------------------------------------------------------|
|------5-5---------------------------------------------|
|--7-7---------5-5-----3-3-----------------10-9-7--7\--|
|----------7-7-----5-5-----3-3-5-3-5--5~~--10-9-7--7\--|
|-------------------------------------------8-7-5--5\--|





Legend
========
~    | Hold Note
PM   | Palm Muting
x    | Mute Note
\    | Slide Down




Alright, that's it. Another great DBX song.
Feedback is welcomed.

-- DH
==================================================
Добавлено: 11.03.2012
Другие материалы по этой песне:
  • Аккорды и текст

Страница создана 11.03.2012
http://primanota.ru/dave-brockie-experience/march-of-the-faggot-soldiers-chords.htm
Привет, Гость.
Предлагаем пройти революционный курс по гитаре.
Подарок от PrimaNota.Ru, забирай!