PrimaNota.ru - самый крупный в мире бесплатный архив песенных текстов, аккордов, табулатур и нот


Dave Brockie Experience - Faggot On Fire - таба, видео

Регистрация Запомнить меня
Войти через:  Facebook Google Twitter Vk Yandex Mail.ru

Dave Brockie Experience - Faggot On Fire - таба, видео

Печатать
Просмотров: 201
First tab request for Roubes - DBX's "Faggot On Fire".
It's a personal favorite of mine, and I love playing
it.


All string tuned half-step down.


INTRO PART I (Slight Wah)
|----------------------|
|----------------------|
|--5~~--3-5-3----------|
|--5~~--3-5-3-5-5~~----|
|--3~~--1-3-1-5-5~~----|
|-------------3-3~~----|
                ^
             (Whammy down after 
              a few seconds)


INTRO PART II
|-----------------------------------------------------------------|
|-----------------------------------------------------------------|
|--5~~~---5-5-5/7~~---0-5-0-5-*7b--5~~~---5-5-5/7~~---0-5-0-5--0--|
|--5~~~---5-5-5/7~~----------------5~~~---5-5-5/7~~---------------|
|--3~~~---3-3-3/5~~----------------3~~~---3-3-3/5~~---------------|
|-----------------------------------------------------------------|
PM        . .                             . .


VERSE
|------------------------------------------------|
|------------------------------------------------|
|------------------------------------------------|
|--5/7-7-7-7-7--0-3-0-3-5--5/7-7-7-7-7--0-3b~-0--|
|--3/5-5-5-5-5-------------3/5-5-5-5-5-----------|
|------------------------------------------------| x2


CHORUS
|--------------------------|
|--------------------------|
|--5/7-7-7--10--9-7-5-7\5--|
|--5/7-7-7--10--9-7-5-7\5--|
|--3/5-5-5---8--7-5-3-5\3--|
|--------------------------| x4

|-----------------------------------|
|-----------------------------------|
|-----------------------------------|
|--5-3-3-5-3-3-5-3-3-5-3-3-5-3-5-3--|
|-----------------------------------|
|-----------------------------------|


Repeat    INTRO PART II
          VERSE


LAST CHORUS
|--------------------------|
|--------------------------|
|--5/7-7-7--10--9-7-5-7\5--|
|--5/7-7-7--10--9-7-5-7\5--|
|--3/5-5-5---8--7-5-3-5\3--|
|--------------------------| x4

|-------------------------|
|-------------------------|
|-------------------------|
|--3/5-5-5--8--7-5-3-5\3--|
|--3/5-5-5--8--7-5-3-5\3--|
|--1/3-3-3--6--5-3-1-3\1--| x2

|--------------------------|
|--------------------------|
|--5/7-7-7--10--9-7-5-7\5--|
|--5/7-7-7--10--9-7-5-7\5--|
|--3/5-5-5---8--7-5-3-5\3--|
|--------------------------| x2

|-----------------------------------|
|-----------------------------------|
|-----------------------------------|
|--5-3-3-5-3-3-5-3-3-5-3-3-5-3-5-3--|
|-----------------------------------|
|-----------------------------------|




Legend
========
~    | Hold Note
PM   | Palm Muting
/    | Slide Up
*    | Pinch Harmonic
b    | Bend Note
\    | Slide Down



That's it. Great song, but it just feels too short.
Feedback is welcomed.

-- DH
====================================================
Добавлено: 11.05.2012
Другие материалы по этой песне:
  • Аккорды и текст

Страница создана 11.05.2012
http://primanota.ru/dave-brockie-experience/faggot-on-fire-chords.htm
Привет, Гость.
Предлагаем пройти революционный курс по гитаре.
Подарок от PrimaNota.Ru, забирай!