PrimaNota.ru - самый крупный в мире бесплатный архив песенных текстов, аккордов, табулатур и нот


Dave Brockie Experience - Dog Log - таба, видео

Регистрация Запомнить меня
Войти через:  Facebook Google Twitter Vk Yandex Mail.ru

Dave Brockie Experience - Dog Log - таба, видео

Печатать
Просмотров: 92
Уроки эстрадного вокала в Санкт-Петербурге
My first post of 2016. Requested by jonnehboi.
According to Dave, this song dates back to the days of Death Piggy. And it shows.



All strings tuned half-step down.

INTRO
|-------------------------------------------------------------|
|-------------------------------------------------------------|
|-------------------------------------------------------------|
|-------0-2-0----0-0-0-2-0~--2--2-3-5-3-2----3-2-0---0-2-0----|
|--3--3-------3------------------------------------3-------3--|
|-------------------------------------------------------------| x4


VERSE
|--------------------------------------------------------|
|-------1-------------3------------5------------6--------|
|---------0---0---------2---2--------4---4--------5---5--|
|-----------2----0~-0-----0---2~-2-----2---3~-3-----3----|
|--3~-3--------------------------------------------------|
|--------------------------------------------------------| x3


|--------------------------------------------------------|
|-------1-------------3------------5------------6--------|
|---------0---0---------2---2--------4---4--------5---5--|
|-----------2----0~-0-----0---2~-2-----2---3~-3-----3----|
|--3~-3--------------------------------------------------|
|--------------------------------------------------------|
|
|Overlay
|----------------------------------------------------------|
|----------------------------------------------------------|
|----------------------------------------------------------|
|-----------------------------2~~----------3~~-------------|
|-----------------------------2~~----------3~~-\\Pick\\----|
|-----------------------------0~~----------1~~--\\Slide\\--|


CHORUS ("Fell off a waterfall")
|----------------------------------------|
|----------------------------------------|
|--9-x-9-x-9-x-12-x-10-x-10-x-10-x-10-x--|
|--9-x-9-x-9-x-12-x-10-x-10-x-10-x-10-x--|
|--7-x-7-x-7-x-10-x--8-x--8-x--8-x--8-x--|
|----------------------------------------|

|-----------------------|
|-----------------------|
|--9-x-9-x-9-x-12-x-10--|
|--9-x-9-x-9-x-12-x-10--|
|--7-x-7-x-7-x-10-x--8--|
|-----------------------|



Repeat             INTRO (Hold the final note)



VERSE 2 (First half has no guitar)
|------------------------|
|------------------------|
|--5~~----5\4~~---4/5~~--|
|------------------------|
|--3~~----3\2~~---2/3~~--|
|------------------------| x2


OUTRO PART 1
|------------------------------------------------|
|-------1~~---------1~~---------1~~---------1~~--|
|------------------------------------------------|
|--------------0~~-------0-2~~-------2-3~~-------|
|--3~~-------3-----------------------------------|
|------------------------------------------------| x2

|------------------------------------------------|
|-------1~~---------1~~---------1~~---------1~~--|
|------------------------------------------------|
|--------------0~~-------0-2~~-------2-3~~-------|
|--3~~-------3-----------------------------------|
|------------------------------------------------| x2
|
|------------------------------------------------------|
|-------1-1-1p0-----1-1-1p0-----1-1-1p0-----1-1-1p0----|
|---------------0-----------0-----------0-----------0--|
|------------------------------------------------------|
|------------------------------------------------------|
|------------------------------------------------------| x2

OUTRO PART 2
|--------------------------------------------------------|
|-------1~-1-1-------1~-1-1-------1~-1-1-------1~-1-1-1--|
|-------0~-0-0-------0~-0-0-------0~-0-0-------0~-0-0-0--|
|-------2~-2-2--0~-0-0~-0-0--2~-2-2~-2-2--3~-3-3~-3-3-3--|
|--3~-3-3~-3-3-------------------------------------------|
|--------------------------------------------------------| x3

|--------------------------------------------------------|
|-------1~-1-1-------1~-1-1-------1~-1-1-------1~-1-1-1--|
|-------0~-0-0-------0~-0-0-------0~-0-0-------0~-0-0-0--|
|-------2~-2-2--0~-0-0~-0-0--2~-2-2~-2-2--3~-3-3~-3-3-3--|
|--3~-3-3~-3-3-------------------------------------------|
|--------------------------------------------------------|
|
|---------------------------------------------------------|
|---------------------------------------------------------|
|---------------------------------------------------------|
|----------------------------2~~----------3~~-------------|
|----------------------------2~~----------3~~-\\Pick\\----|
|----------------------------0~~----------1~~--\\Slide\\--|


LAST CHORUS
|----------------------------------------|
|----------------------------------------|
|--9-x-9-x-9-x-12-x-10-x-10-x-10-x-10-x--|
|--9-x-9-x-9-x-12-x-10-x-10-x-10-x-10-x--|
|--7-x-7-x-7-x-10-x--8-x--8-x--8-x--8-x--|
|----------------------------------------|

|-----------------------|
|-----------------------|
|--9-x-9-x-9-x-12-x-10--|
|--9-x-9-x-9-x-12-x-10--|
|--7-x-7-x-7-x-10-x--8--|
|-----------------------|


AND HE TURNED INTO A DOG
|-----|
|-----|
|--5--|
|--5--|
|--3--|
|-----|




Legend
========
~    | Hold Note/Vibrato
x    | Mute Note
/    | Slide Up
\    | Slide Down
p    | Pull-Off


 
Feedback is welcomed.

-- DH
========================================================
Добавлено: 15.06.2016
Другие материалы по этой песне:
  • Аккорды и текст

Страница создана 15.06.2016
http://primanota.ru/dave-brockie-experience/dog-log-chords.htm
Привет, Гость.
Предлагаем пройти революционный курс по гитаре.
Подарок от PrimaNota.Ru, забирай!