PrimaNota.ru - самый крупный в мире бесплатный архив песенных текстов, аккордов, табулатур и нот


Dave Brockie Experience - 40000 Times - таба, видео

Регистрация Запомнить меня
Войти через:  Facebook Google Twitter Vk Yandex Mail.ru

Dave Brockie Experience - 40000 Times - таба, видео

Печатать
Просмотров: 86
As recorded by Dave Brockie Experience
(From the 2001 Album DIARRHEA OF A MADMAN)
Note 1: Listen to record for exact rhythm

Transcribed by pretty_flesh@hotmail.com
Posted by Iron Pete
 

 

Gtr I (Eb Ab Db Gb Bb Eb) - 'Untitled'


 Intro
  Q=171
                    D
 4/4
  Gtr I
                    ~~~~~~~~~~~~~~~~~~~~~~~~~~~~
  Wx7          H    H        +W             +W
|------------|-----------||--------------||--------|
|------------|-----------||o------------o||--------|
|------------|------7----||--(7)---------||-(7)----|
|------------|-----------||--------------||--------|
|------------|------5----||o-(5)--------o||-(5)----|
|------------|-----------||--------------||--------|


    D       E     F               G
    E E E E E E E  E    +E   E  E  E  +E   E  Q
||-------------------|----------------------------||
||o------------------|---------------------------o||
||--7-7-7-7-9-9-9-10-|-(10)-10-10-12-(12)-12-12---||
||-------------------|----------------------------||
||o-5-5-5-5-7-7-7--8-|--(8)--8--8-10-(10)-10-10--o||
||-------------------|----------------------------||


  A                    Bb     A    Bb   A
   E  E  E  E  E  E  E  E   E  E E  E E  E  Q
|-------------------------|--------------------|
|-------------------------|--------------------|
|-14-14-14-14-14-14-14-15-|---14---15---14-14--|
|-------------------------|--------------------|
|-12-12-12-12-12-12-12-13-|---12---13---12-12--|
|-------------------------|--------------------|


  A                           G    F    E
   E  E  E  E  E  E  E  E   E  E E  E E Q.
|-------------------------|------------------|
|-------------------------|------------------|
|-14-14-14-14-14-14-14-14-|---12---10---9----|
|-------------------------|------------------|
|-12-12-12-12-12-12-12-12-|---10----8---7----|
|-------------------------|------------------|


   Verse              Chorus
    D5                 A5                   G5   G5           F#5
    E E E E E Q.    4x  E  E  E  E  E  E  E  E    E  E  E  E   E  E  E  E
||----------------||-------------------------|-----------------------------|
||o--------------o||-------------------------|-----------------------------|
||-7-7-7-7-7------||-14-14-14-14-14-14-14S12-|-12-12-12-12\-11-11-11-11\---|
||-7-7-7-7-7------||-14-14-14-14-14-14-14S12-|-12-12-12-12\-11-11-11-11\---|
||o5-5-5-5-5-----o||-12-12-12-12-12-12-12S10-|-10-10-10-10\--9--9--9--9\---|
||----------------||-------------------------|-----------------------------|


   Verse              Chorus
    D5                 A5                   G5   G5           F#5
    E E E E E Q.    6x  E  E  E  E  E  E  E  E    E  E  E  E   E  E  E  E
||----------------||-------------------------|-----------------------------|
||o--------------o||-------------------------|-----------------------------|
||--7-7-7-7-7-----||-14-14-14-14-14-14-14S12-|-12-12-12-12\-11-11-11-11\---|
||--7-7-7-7-7-----||-14-14-14-14-14-14-14S12-|-12-12-12-12\-11-11-11-11\---|
||o-5-5-5-5-5----o||-12-12-12-12-12-12-12S10-|-10-10-10-10\--9--9--9--9\---|
||----------------||-------------------------|-----------------------------|


                                  Interlude
  D5               D5              A5
  E E E E E Q  E   E E E H     E    Q   E  Q   E  E  E
|----------------|---------------|----------------------|
|----------------|---------------|----------------------|
|-7-7-7-7-7----7-|-7-7-7---------|-14--14-14--14-14-14--|
|-7-7-7-7-7----7-|-7-7-7-x\------|-14--14-14--14-14-14--|
|-5-5-5-5-5----5-|-5-5-5-x\------|-12--12-12--12-12-12--|
|----------------|---------------|----------------------|


  G5                    D5                D5
   Q   E  E  Q   E  E   Q  E E Q  E E   E E E E E E E E
|---------------------|---------------|------------------|
|---------------------|---------------|------------------|
|-12--12-12-11--11-11-|-7--7-7-7--7-7-|---7---7---7---7--|
|-12--12-12-11--11-11-|-7--7-7-7--7-7-|---7---7---7---7--|
|-10--10-10--9---9--9-|-5--5-5-5--5-5-|---5---5---5---5--|
|---------------------|---------------|------------------|


  A5                    G5        F#5         D5                D5
   Q   E  Q   E  E  E    Q   E  E  Q   E  E   E E E E E E E E   E H..
|---------------------|---------------------|-----------------|----------|
|---------------------|---------------------|-----------------|----------|
|-14--14-14--14-14-14-|-12--12-12-11--11-11-|-7-7-7-7-7-7-7-7-|-7--------|
|-14--14-14--14-14-14-|-12--12-12-11--11-11-|-7-7-7-7-7-7-7-7-|-7--------|
|-12--12-12--12-12-12-|-10--10-10--9---9--9-|-5-5-5-5-5-5-5-5-|-5--------|
|---------------------|---------------------|-----------------|----------|


    D       E     F         F     G
    E E E E E E E  E    +E   E  E  E  +E   E  Q
||-------------------|----------------------------||
||o------------------|---------------------------o||
||--7-7-7-7-9-9-9-10-|-(10)-10-10-12-(12)-12-12---||
||-------------------|----------------------------||
||o-5-5-5-5-7-7-7--8-|--(8)--8--8-10-(10)-10-10--o||
||-------------------|----------------------------||


  A                    Bb     A    Bb   A
   E  E  E  E  E  E  E  E   E  E E  E E  E  Q
|-------------------------|--------------------|
|-------------------------|--------------------|
|-14-14-14-14-14-14-14-15-|---14---15---14-14--|
|-------------------------|--------------------|
|-12-12-12-12-12-12-12-13-|---12---13---12-12--|
|-------------------------|--------------------|


  A                           G    F    E
   E  E  E  E  E  E  E  E   E  E E  E E Q.
|-------------------------|------------------|
|-------------------------|------------------|
|-14-14-14-14-14-14-14-14-|---12---10---9----|
|-------------------------|------------------|
|-12-12-12-12-12-12-12-12-|---10----8---7----|
|-------------------------|------------------|


   Verse                  Chorus
    D5                     D5                        D5
    E E E E E Q.    8x     E E E E E  E   E   E   7x E E E E E Q.
||------------------||-||-------------------------||---------------*|
||o----------------o||-||o-----------------------o||---------------*|
||--7-7-7-7-7-------||-||--7-7-7-7-7--------------||-7-7-7-7-7-----*|
||--7-7-7-7-7-------||-||--7-7-7-7-7--------------||-7-7-7-7-7-----*|
||o-5-5-5-5-5------o||-||o-5-5-5-5-5-<5>-<5>-<5>-o||-5-5-5-5-5-----*|
||------------------||-||-------------------------||---------------*|




--------------------------------------------------------------------------------


Duration Legend
---------------
W - whole; H - half; Q - quarter; E - 8th; S - 16th; T - 32nd; X - 64th; a - acciaccatura
+ - note tied to previous; . - note dotted; .. - note double dotted
Uncapitalized letters represent notes that are staccato (1/2 duration)
Irregular groupings are notated above the duration line
Duration letters will always appear directly above the note/fret number it represents the
duration for.  Duration letters with no fret number below them represent rests.  Multi-
bar rests are notated in the form Wxn, where n is the number of bars to rest for.  Low
melody durations appear below the staff

Tablature Legend
----------------
 h   - hammer-on
 p   - pull-off
 b   - bend
 pb  - pre-bend
 r   - bend release (if no number after the r, then release immediately)
 /\  - slide into or out of (from/to "nowhere")
 s   - legato slide
 S   - shift slide
 - natural harmonic
[n]  - artificial harmonic
n(n) - tapped harmonic
 ~   - vibrato
 tr  - trill
 T   - tap
 TP  - trem. picking
 PM  - palm muting
\n/  - tremolo bar dip; n = amount to dip
 \n  - tremolo bar down
 n/  - tremolo bar up
/n\  - tremolo bar inverted dip
 =   - hold bend; also acts as connecting device for hammers/pulls
 <> - volume swell (louder/softer)
 x   - on rhythm slash represents muted slash
 o   - on rhythm slash represents single note slash

Misc Legend
-----------
 |  - bar
||  - double bar
||o - repeat start
o|| - repeat end
*|  - double bar (ending)
 :  - bar (freetime)
 $  - Segno
 &  - Coda
Tempo markers -  = BPM(8/16=s8/s16), where s8 = swing 8ths, s16 = swing 16ths

Добавлено: 18.05.2012
Другие материалы по этой песне:

Страница создана 18.05.2012
http://primanota.ru/dave-brockie-experience/40000-times-chords.htm
Привет, Гость.
Предлагаем пройти революционный курс по гитаре.
Подарок от PrimaNota.Ru, забирай!