PrimaNota.ru - самый крупный в мире бесплатный архив песенных текстов, аккордов, табулатур и нот


Dave And Ansel Collins - Double Barrel - бас-таба, видео

Регистрация Запомнить меня
Войти через:  Facebook Google Twitter Vk Yandex Mail.ru

Dave And Ansel Collins - Double Barrel - бас-таба, видео

Печатать
Просмотров: 139
Авторы музыки: Winston Riley, Dave Barker, Ansel Collins
Авторы текста: Winston Riley, Dave Barker, Ansel Collins
Double Barrel by Dave and Ansel Collins 
- Bas tab by Mathias of Danish reggae band, Shuffler -
visit us on www.shuffler.dk!


The song consists of 3 different parts that alternate.

Bass tab:

A)

G|----------7---------------------------------|
D|8-8-8-6-8-----8--------8-8------------------|
A|---------------------------10-10-8----------|
E|-----------------------------------10---6---|

B)

G|------------------------------------------------------------|
D|----8-----8-------------------6------6--4---3---2---1---0---|
A|--8-----8------5-5-5-5------6------6------------------------|
E|6-----6-------------------4------4--------------------------|

C)

G|---------------------------------------------------------------------7---|
D|----------7--------------7-8-8-8-8-------------7-----------8-8-8-6-8----8|
A|8-8-8-6-8-----8--------8-------------8-8-8-6-8-----8---------------------|
E|-------------------------------------------------------------------------|


These are the chords for all 3 parts:

A: .Bb.
B: .Bb Dm.Ab F# F Eb D.
C: .F.Bb.



And this is the form of the song:


Intro
A
A (Piano-theme 1)
B
A (Piano-theme 1)
C
A (Piano-theme 2)
A (Piano-theme 3)
B
A (Piano-theme 1)
B
Добавлено: 30.08.2013
Другие материалы по этой песне:
  • Аккорды и текст

Страница создана 30.08.2013
http://primanota.ru/dave-and-ansel-collins/double-barrel-chords.htm
Привет, Гость.
Предлагаем пройти революционный курс по гитаре.
Подарок от PrimaNota.Ru, забирай!