PrimaNota.ru - самый крупный в мире бесплатный архив песенных текстов, аккордов, табулатур и нот


Daughtry - You Dont Belong To Me - таба, видео

Регистрация Запомнить меня
Войти через:  Facebook Google Twitter Vk Yandex Mail.ru

Daughtry - You Dont Belong To Me - таба, видео

Печатать
Просмотров: 105
PTL

               Daughtry – you don't belong to me

                     From leave this town

Tabbed by: Sanjeev George and Thomas George

Email:SanjeevGeorge123@yahoo.co.in

Submitted to and for www.ultimate-guitar.com only, the site for all your tab needs.

Tuning: Drop Db

Intro 

Guitar 1
eb|---------------------------------------|
Bb|---------------------------------------|
Gb|----3-2---3-5---3-2---3-5---0---0------|
Db|--0-----0-----0-----0-----0---3--------|x 2
Ab|---------------------------------------|
Db|---------------------------------------|
    ====palm muted=================

eb|---------------------------------------|
Bb|---------------------------------------|
Gb|----3-2---3-5---3-2---3-5---0---0------|
Db|--0-----0-----0-----0-----0---3--------|x 2
Ab|---------------------------------------|
Db|---------------------------------------|

Both guitars
eb|----------------------------------------------------------------|
Bb|----------------------------------------------------------------|
Gb|----------------------------------------------------------------|
Db|--0---8-7—--00---8/10-10-5-7---0---8-7---00---------------------|
Ab|--0---8-7—--00---8/10-10-5-7---0---8-7---00---------------------|
Db|--0---8-7---00---8/10-10-5-7---0---8-7---00---10-7-10b11--------|

eb|--------------------------------------------------------|
Bb|--------------------------------------------------------|
Gb|--------------------------------------------------------|
Db|--0---8-7—--00---8/10-10-5-7----------------------0~----|
Ab|--0---8-7—--00---8/10-10-5-7---3h5-3---0----------0~----|
Db|--0---8-7---00---8/10-10-5-7---------5---3-5v-----0~----|


Verse

Guitar 2 

 Dm
With time to kill and an empty tomb, I
                                        Bb
always find a way to pass the time with you
 C
Dark and smokey room
I can hardly stand the fumes
 Dm
Telling me that you mean no harm, you
                                   Bb
 Stand me up like a crutch without an arm
 C
But only when I'm gone
     F                G
Have I been away too long?

Guitar 1 during verse w/effect
eb|-------------------------------------|
Bb|-------------------------------------|
Gb|-------------------------------------|
Db|--12v-\-5v-/12v-/15v-\12v-\5v-/19v---|
Ab|-------------------------------------|
Db|-------------------------------------|

Guitar 2
eb|--x---------------------------|
Bb|--x---------------------------|
Gb|--x-(5)-----------------------|
Db|--x-------8p7-0-7p5-0-5p3-----|
Ab|--x-------8p7-0-7p5-0-5p3-----|
Db|--x-------8p7-0-7p5-0-5p3-----|
                .     .

Chorus
Guitar 2 (No! u don't belong to me)
e|-----------------------------------------------------------------------|
B|-----------------------------------------------------------------------|
G|-----------------------------------------------------------------------|x2
D|-0--0---000---3--33--33-3---5/7\5--55555555---3-3-33-3-3-33-3333-3/5---|
A|-0--0---000---3--33--33-3---3/5\3--33333333---1-1-11-1-1-11-1111-1/3---|
E|-0--0---000---3--33--33-3----------------------------------------------|
            .                                       ..     ..

eb|----------------------------------------------------------------|
Bb|----------------------------------------------------------------|
Gb|----------------------------------------------------------------|
Db|--0---8-7—--00---8/10-10-5-7---0---8-7---00---------------0~----|
Ab|--0---8-7—--00---8/10-10-5-7---0---8-7---00---------------0~----|
Db|--0---8-7---00---8/10-10-5-7---0---8-7---00---10-7-10b11—-0~----|


Guitar 1 (No! u tell me anything....)
eb|--------------------------------------------------------|
Bb|--------------------------------------------------------|
Gb|--10-10-10-10-10-10-10-10--12-12-12-12-12-12-12-12------|
Db|--------------------------------------------------------|
Ab|---8--8—-8--8--8--8--8--8--10-10-10-10-10-10-10-10------|
Eb|--------------------------------------------------------|

eb|---------------------------------------------------------------------------|
Bb|---------------------------------------------------------------------------|
Gb|--14-14-14-14-14-14-14-14--17-17-17-17-17-17-17-17--19-19-19-19------------|
Db|---------------------------------------------------------------------------|
Ab|--12-12-12-12-12-12-12-12--15-15-15-15-15-15-15-15--17-17-17-17------------|
Eb|---------------------------------------------------------------------------|
You don't belong to me/ I think you lied to me
And with my back against this wall, its hard to be strong
You'd tell me anything/ Look what you've done to me
And still I tell myself that tomorrow you'll be long gone


Verse 2
Guitar 1
 Dm                       
Any given time or place, I
                              Bb
never will forget the disgrace on
      C 
your face so full of love
Will it ever be enough?
    Dm
Ten feet tall and bullet proof, I
                                   Bb
never thought that I had a thing to lose
                        C
Well it looks like after all
                    F    G
I'm gonna have to choose

Guitar 2
eb|-----------------------------|
Bb|-----------------------------|
Gb|-----------------------------|
Db|--0000---8p7-0-7p5-0-5p3-----|
Ab|--0000---8p7-0-7p5-0-5p3-----|
Eb|--0000---8p7-0-7p5-0-5p3-----|
    ....

Chorus repeat

Bridge
Guitar 1 solo during the bridge
eb|---------------------------------------------------------------------------|
Bb|---------11---------11----------13b15v-------------------------------------|
Gb|---------10b12r10---10b12r10--------------10-12-12b14r12--10--9--10--------|
Db|---------------------------------------------------------------------------|
Ab|---------------------------------------------------------------------------|
Db|-/15\--0----------0------------------------------------------------------|

eb|---------------------------------------------------------------------------|
Bb|--------------11-11-10----------------13b15v-------------------------------|
Gb|-9b10r9b10r------------10-9h10-10v-----------10-12-12b14r12-10-9-10--------|
Db|---------------------------------------------------------------------------|
Ab|---------------------------------------------------------------------------|
Db|---------------------------------------------------------------------------|

eb|---------------------------------------------------------------------------|
Bb|-------------11-11-10------------------------------------------------------|
Gb|-9b10r9b10r ----------10vvvvvvvv-vibrate with whammy----------------------|
Db|---------------------------------------------------------------------------|
Ab|---------------------------------------------------------------------------|
Db|---------------------------------------------------------------------------|

Guitar 2
eb|--------------------------------------------------------------------------|
Bb|--------------------------------------------------------------------------|
Gb|--------------------------------------------------------------------------|
Db|--33333333--77777777-55555555--33-33-33-33-3333----8-77-8--88888888-------|
Ab|--33333333--55555555-33333333--11-11-11-11-1111----8-77-8--88888888-------|
Db|--33333333-----------------------------------------8-77-8--88888888-------|
                                    ..    ..

eb|----------------------------|
Bb|----------------------------|
Gb|----------------------------|
Db|--77777777-55555555—-8~-----|
Ab|--55555555-33333333—-8~-----|
Db|---------------------8~-----|



Before the last chorus
Guitar 2
eb|-----------------|
Bb|-----------------|
Gb|--3-2---2~-------| x 4
Db|------0----------|
Ab|-----------------|
Db|-----------------|

Chorus repeat with just a little variation on guitar 2 like this

eb|-----------------------------------------------------------------------|
Bb|-----------------------------------------------------------------------|
Gb|-----------------------------------------------------------------------|
Db|-0--0---000---3--33--33-3---5/7\5--55555555---3-3-33-3-3-33-3333-3/5---|
Ab|-0--0---000---3--33--33-3---3/5\3--33333333---1-1-11-1-1-11-1111-1/3---|
Db|-0--0---000---3--33--33-3----------------------------------------------|
            .                                       ..     ..

eb|-------------------------------------------------------------------------|
Bb|-------------------------------------------------------------------------|
Gb|-------------------------------------------------------------------------| 
Db|-0--0---000---3--33--33-3---5/7\5--55555555---3-3-33---------------------|
Ab|-0--0---000---3--33--33-3---3/5\3--33333333---1-1-11-3p0-3h5-3h5p3-------|
Db|-0--0---000---3--33--33-3------------------------------------------7-5---|
            .                                       ..

eb|-----------------------------------------------------------------------|
Bb|-----------------------------------------------------------------------|
Gb|-----------------------------------------------------------------------|
Db|-0--0---000---3--33--33-3---5/7\5--55555555---3-3-33-3-3-33-3333-3/5---|
Ab|-0--0---000---3--33--33-3---3/5\3--33333333---1-1-11-1-1-11-1111-1/3---|
Db|-0--0---000---3--33--33-3----------------------------------------------|
            .                                       ..     ..


eb|----------------------------------------------------------------|
Bb|----------------------------------------------------------------|
Gb|----------------------------------------------------------------|
Db|--0---8-7—--00---8/10-10-5-7---0---8-7---00---------------0~----|
Ab|--0---8-7—--00---8/10-10-5-7---0---8-7---00---------------0~----|
Db|--0---8-7---00---8/10-10-5-7---0---8-7---00---10-7-10b11—-0~----|


End song with (Both guitars)

eb|----------------------------------------------------------------|
Bb|----------------------------------------------------------------|
Gb|----------------------------------------------------------------|
Db|--0---8-7—--00---8/10-10-5-7---0---8-7---00---------------------|
Ab|--0---8-7—--00---8/10-10-5-7---0---8-7---00---------------------|
Db|--0---8-7---00---8/10-10-5-7---0---8-7---00---10-7-10b11--------|

eb|--------------------------------------------------------|
Bb|--------------------------------------------------------|
Gb|--------------------------------------------------------|
Db|--0---8-7—--00---8/10-10-5-7----------------------0~----|
Ab|--0---8-7—--00---8/10-10-5-7---3h5-3---0----------0~----|
Db|--0---8-7---00---8/10-10-5-7---------5---3-5v-----0~----|


| /  slide up
| \  slide down
| h  hammer-on
| p  pull-off
| v  vibrato
| +  harmonic
| x  Mute note
| ~ let ring
| . palm mute


Please rate the tab.Thank you
===============================================================================
Добавлено: 05.06.2013
Другие материалы по этой песне:
  • Аккорды и текст

Страница создана 05.06.2013
http://primanota.ru/daughtry/you-dont-belong-to-me-chords.htm
Привет, Гость.
Предлагаем пройти революционный курс по гитаре.
Подарок от PrimaNota.Ru, забирай!