PrimaNota.ru - самый крупный в мире бесплатный архив песенных текстов, аккордов, табулатур и нот


Daughtry - Used Up - таба, видео

Регистрация Запомнить меня
Войти через:  Facebook Google Twitter Vk Yandex Mail.ru

Daughtry - Used Up - таба, видео

Печатать
Просмотров: 66
----------------------------------------------------------------------------
			     used to - Daughtry
----------------------------------------------------------------------------
Tabbed by:Gibsonsrock
Email:gibsonsrock@comcast.net

Tuning:D a d g b e

               3x                                        1x
e|---------------------------------|-----------------------------------------|
B|-7---7---7---7---7---7---7-9-7---|-------7---7---7-9-7---7-9-7---7-9-7-----|
G|---9---9---9---9---9---9------9--|---------9---9-------9-------9-------9---|
D|---------------------------------|-----------------------------------------|
A|---------------------------------|-----------------------------------------|
E|---------------------------------|-----------------------------------------|

        1x                               2x
e|-------------|------------------------------------------------------------|
B|-------------|------------------------------------------------------------|
G|-------------|-------------------------9-9-9-9-9-9-9-9--------------------|
D|-7-7-7-7-9-9-|------2-2-2-2-2-2-2-2----9-9-9-9-9-9-9-9----7-7-7-7-7-7-7-7-|
A|-7-7-7-7-9-9-|------2-2-2-2-2-2-2-2----7-7-7-7-7-7-7-7----7-7-7-7-7-7-7-7-|
E|-7-7-7-7-9-9-|------2-2-2-2-2-2-2-2-----------------------7-7-7-7-7-7-7-7-|

                                 1x

e|-----------------|--------------------------------------|
g|-----------------|--------------------------------------|
B|-----------------|--------------------------------------|
D|-9-9-9-9-9-9-9-9-|--7-7-7-7-7-7-7-7----9-9-9-9-9-9-9-9--|
A|-9-9-9-9-9-9-9-9-|--7-7-7-7-7-7-7-7----9-9-9-9-9-9-9-9--|
E|-9-9-9-9-9-9-9-9-|--7-7-7-7-7-7-7-7----9-9-9-9-9-9-9-9--|

                3x                                 1x
e|---------------------------------|----------------------------------|
B|-7---7---7---7---7---7---7-9-7---|-7---7---7-9-7---7-9-7---7-9-7----|
G|---9---9---9---9---9---9-------9-|---9---9-------9-------9-------9--|
D|---------------------------------|----------------------------------|
A|---------------------------------|----------------------------------|
E|---------------------------------|----------------------------------|

                                         2x
e|-------------|------------------------------------------------------------|
B|-------------|------------------------------------------------------------|
G|-------------|--------------------9-9-9-9-9-9-9-9-9-----------------------|
D|-7-7-7-7-9-9-|-2-2-2-2-2-2-2-2----9-9-9-9-9-9-9-9-9----7-7-7-7-7-7-7-7----|
A|-7-7-7-7-9-9-|-2-2-2-2-2-2-2-2----7-7-7-7-7-7-7-7-7----7-7-7-7-7-7-7-7----|
E|-7-7-7-7-9-9-|-2-2-2-2-2-2-2-2-------------------------7-7-7-7-7-7-7-7----|

                                       1x
e|-------------------|----------------------------------------|
B|-------------------|----------------------------------------|
G|-------------------|----------------------------------------|
D|-9-9-9-9-9-9-9-9-9-|-2-2--2-2--2-2--2-2--7-7--7-7--7-7--9-9-|
A|-9-9-9-9-9-9-9-9-9-|-2-2--2-2--2-2--2-2--7-7--7-7--7-7--9-9-|
E|-9-9-9-9-9-9-9-9-9-|-2-2--2-2--2-2--2-2--7-7--7-7--7-7--9-9-|

                       1x
e|----------------------------------------------------|
B|----------------------------------------------------|
G|--------------------------------------------------9-|
D|-2-2--2-2--2-2--2-2--7-7--7-7--9-9-9-9-9-9-9-9----9-|
A|-2-2--2-2--2-2--2-2--7-7--7-7--9-9-9-9-9-9-9-9----7-|
E|-2-2--2-2--2-2--2-2--7-7--7-7--9-9-9-9-9-9-9-9------|

e|---------------------------------------|-----|
B|---------------------------------------|-----|
G|-9-------------------------------------|-----|
D|-9--play acoustic   listen for rythme--|-7-7-|
A|-7-------------------------------------|-7-7-|
E|---------------------------------------|-7-7-|

                                    1x
e|-------------------------------------------------------------------------|
B|-------------------------------------------------------------------------|
G|--------------------9-9-9-9-9-9-9-9--------------------------------------|
D|-2-2-2-2-2-2-2-2----9-9-9-9-9-9-9-9----7-7-7-7-7-7-7-7----9-9-9-9-9-9-9-9|
A|-2-2-2-2-2-2-2-2----7-7-7-7-7-7-7-7----7-7-7-7-7-7-7-7----9-9-9-9-9-9-9-9|
E|-2-2-2-2-2-2-2-2-----------------------7-7-7-7-7-7-7-7----9-9-9-9-9-9-9-9|

                                     1x
e|-------------------------------------------------------------------------|
B|-------------------------------------------------------------------------|
G|--------------------9-9-9-9-9-9-9-9--------------------------------------|
D|-2-2-2-2-2-2-2-2----9-9-9-9-9-9-9-9----7-7-7-7-7-7-7-7----9-9-9-9-9-9-9-9|
A|-2-2-2-2-2-2-2-2----7-7-7-7-7-7-7-7----7-7-7-7-7-7-7-7----9-9-9-9-9-9-9-9|
E|-2-2-2-2-2-2-2-2-----------------------7-7-7-7-7-7-7-7----9-9-9-9-9-9-9-9|

                   1x
e|-------------------------------------|
g|-------------------------------------|
B|-------------------------------------|
D|-7-7-7-7-7-7-7-7----9-9-9-9-9-9-9-9--|
A|-7-7-7-7-7-7-7-7----9-9-9-9-9-9-9-9--|
E|-7-7-7-7-7-7-7-7----9-9-9-9-9-9-9-9--|

                                    1x
e|-------------------------------------------------------------------------|
B|-------------------------------------------------------------------------|
G|--------------------9-9-9-9-9-9-9-9--------------------------------------|
D|-2-2-2-2-2-2-2-2----9-9-9-9-9-9-9-9----7-7-7-7-7-7-7-7----9-9-9-9-9-9-9-9|
A|-2-2-2-2-2-2-2-2----7-7-7-7-7-7-7-7----7-7-7-7-7-7-7-7----9-9-9-9-9-9-9-9|
E|-2-2-2-2-2-2-2-2-----------------------7-7-7-7-7-7-7-7----9-9-9-9-9-9-9-9|

                                     1x
e|-------------------------------------------------------------------------|
B|-------------------------------------------------------------------------|
G|--------------------9-9-9-9-9-9-9-9--------------------------------------|
D|-2-2-2-2-2-2-2-2----9-9-9-9-9-9-9-9----7-7-7-7-7-7-7-7----9-9-9-9-9-9-9-9|
A|-2-2-2-2-2-2-2-2----7-7-7-7-7-7-7-7----7-7-7-7-7-7-7-7----9-9-9-9-9-9-9-9|
E|-2-2-2-2-2-2-2-2-----------------------7-7-7-7-7-7-7-7----9-9-9-9-9-9-9-9|


e|---|
B|---|
G|-9-|hold
D|-9-|
A|-7-|
E|---|

| /  slide up
| \  slide down
| h  hammer-on
| p  pull-off
| ~  vibrato
| +  harmonic
| x  Mute note
============================================================================
Добавлено: 08.11.2013
Другие материалы по этой песне:
  • Аккорды и текст

Страница создана 08.11.2013
http://primanota.ru/daughtry/used-up-chords.htm
Привет, Гость.
Предлагаем пройти революционный курс по гитаре.
Подарок от PrimaNota.Ru, забирай!