PrimaNota.ru - самый крупный в мире бесплатный архив песенных текстов, аккордов, табулатур и нот


Daughtry - Feels Like The First Time - текст песни, таба, видео

Регистрация Запомнить меня
Войти через:  Facebook Google Twitter Vk Yandex Mail.ru

Daughtry - Feels Like The First Time - текст песни, таба, видео

Печатать
Просмотров: 175
Уроки эстрадного вокала в Санкт-Петербурге
Title: Feels Like The First Time
Artist: Daughtry

Tabbed by: DLG
This song was originally done by Foreigner, obviously, but I really like this version 
by Daughtry so i tabbed out the power chords used. It's pretty simple and the strumming 
difficult to figure out if you listen to the song.

Tuning: Half Step Down

Intro:
     G                   F                   C
Eb-|------------------------------------------------------------------------|
Bb-|-----------------------------------------1-1-1-1-1-1-1-1--1-1-1-1-1-----|
Gb-|-4-4-4-4-4-4-4-4-----2-2-2-2-2-2-2-2-----0-0-0-0-0-0-0-0--0-0-0-0-0-----|
Db-|-5-5-5-5-5-5-5-5-----3-3-3-3-3-3-3-3-----2-2-2-2-2-2-2-2--3-3-0-2-3-----|
Ab-|-5-5-5-5-5-5-5-5-----3-3-3-3-3-3-3-3-----3-3-3-3-3-3-3-3--3-3-3-3-3-----|
Eb-|-3-3-3-3-3-3-3-3-----1-1-1-1-1-1-1-1------------------------------------|

Verse:
     G                   F                  C
Eb-|------------------------------------------------------------------------|
Bb-|----------------------------------------1-1-1-1-1-1-1-1--1-1-1-1-1------|
Gb-|-4-4-4-4-4-4-4-4-----2-2-2-2-2-2-2-2----0-0-0-0-0-0-0-0--0-0-0-0-0------|
Db-|-5-5-5-5-5-5-5-5-----3-3-3-3-3-3-3-3----2-2-2-2-2-2-2-2--3-3-0-2-3------|
Ab-|-5-5-5-5-5-5-5-5-----3-3-3-3-3-3-3-3----3-3-3-3-3-3-3-3--3-3-3-3-3------|
Eb-|-3-3-3-3-3-3-3-3-----1-1-1-1-1-1-1-1------------------------------------|
       I would climb any mountain             Sail across the stormy seas
       If that's what is takes me baby    to show how much you mean to me

Pre Chorus:
     A
Eb-|------------------------------------------------------------------------|
Bb-|------------------------------------------------------------------------|
Gb-|-6----------------------------------------------------------------------|
Db-|-7----------------------------------------------------------------------|
Ab-|-7----------------------------------------------------------------------|
Eb-|-5----------------------------------------------------------------------|
     And I guess it's just the woman in you, that brings out the man in me

     B
Eb-|------------------------------------------------------------------------|
Bb-|------------------------------------------------------------------------|
Gb-|-8----------------------------------------------------------------------|
Db-|-9----------------------------------------------------------------------|
Ab-|-9----------------------------------------------------------------------|
Eb-|-7----------------------------------------------------------------------|
     I know I cant help myself, you're all in the world to me

Chorus (I changed up the chords just a tad so it doesn't get too monotonous):
     C  G                    F                C                   G
Eb-|------------------------------------------------------------------------|
Bb-|------------------------------------------------------------------------|
Gb-|-5----------------------------------------5-5-5-5-5-5-5-5---------------|
Db-|-5--55-5-5-5-5-5-5-5-5---3-3-3-3-3-3-3-3--5-5-5-5-5-5-5-5-----5-5-5-5-5-|
Ab-|-3--55-5-5-5-5-5-5-5-5---3-3-3-3-3-3-3-3--3-3-3-3-3-3-3-3-----5-5-5-5-5-|
Eb-|-3--33-3-3-3-3-3-3-3-3---1-1-1-1-1-1-1-1--3-3-3-3-3-3-3-3-----3-3-3-3-3-|
           It feels like the first time         It feels like the very first

              G                   F                C                   G
Eb-|------------------------------------------------------------------------|
Bb-|------------------------------------------------------------------------|
Gb-|-----------------------------------------------5-5-5-5-5-5-5-5----------|
Db-|-5-5-5--5-5-5-5-5-5-5-5-------3-3-3-3-3-3-3-3--5-5-5-5-5-5-5-5-----5-5-5|
Ab-|-5-5-5--5-5-5-5-5-5-5-5-------3-3-3-3-3-3-3-3--3-3-3-3-3-3-3-3-----5-5-5|
Eb-|-3-3-3--3-3-3-3-3-3-3-3-------1-1-1-1-1-1-1-1--3-3-3-3-3-3-3-3-----3-3-3|
     time       It feels like the first time         It feels like the very

Eb-|------------------------------------------------------------------------|
Bb-|------------------------------------------------------------------------|
Gb-|------------------------------------------------------------------------|
Db-|-5-5-5-5-5--------------------------------------------------------------|
Ab-|-5-5-5-5-5--------------------------------------------------------------|
Eb-|-3-3-3-3-3--------------------------------------------------------------|
     first time

Verse 2 (same as verse 1):
I have waited a lifetime, spent my time so foolishly
But now that I've found you, together we'll make history

Pre-Chorus (same):
And I know that it must be the woman in you, that brings out the man in me
I know I cant help myself, you're all that my eyes can see

Chorus:
It feels like the first time, feels like the very first time
It feels like the first time, it feels like the very first time

Bridge (play this one time through, then the words start):
     E                     D              C               B             E
Eb-|------------------------------------------------------------------------|
Bb-|------------------------------------------------------------------------|
Gb-|-9---------------------7--------------5---------------4-------------9---|
Db-|-9---------------------7--------------5---------------4-------------9---|
Ab-|-7---------------------5--------------3---------------2-------------7---|
Eb-|-7---------------------5--------------3---------------2-------------7---|
    And it feels like the first time             Like it never  did before
    Feels like the        first time          Like we've opened up the door

     E            D            C               B          E
Eb-|------------------------------------------------------------------------|
Bb-|------------------------------------------------------------------------|
Gb-|-9------------7------------5---------------4----------5-----------------|
Db-|-9------------7------------5---------------4----------5-----------------|
Ab-|-7------------5------------3---------------2----------3-----------------|
Eb-|-7------------5------------3---------------2----------3-----------------|
   Feels like the first time           like it never will again

       C   G
Eb-|------------------------------------------------------------------------|
Bb-|------------------------------------------------------------------------|
Gb-|---5--------------------------------------------------------------------|
Db-|---5---55---------------------------------------------------------------|
Ab-|---3---55---------------------------------------------------------------|
Eb-|---3---33---------------------------------------------------------------|
    Never again


Then just play the chorus and slow up the chords on the outro and you're all done!
Добавлено: 05.07.2013
Другие материалы по этой песне:
  • Аккорды и текст

Страница создана 05.07.2013
http://primanota.ru/daughtry/feels-like-the-first-time-chords.htm
Привет, Гость.
Предлагаем пройти революционный курс по гитаре.
Подарок от PrimaNota.Ru, забирай!