PrimaNota.ru - самый крупный в мире бесплатный архив песенных текстов, аккордов, табулатур и нот


Daughter - Numbers - таба, видео

Регистрация Запомнить меня
Войти через:  Facebook Google Twitter Vk Yandex Mail.ru

Daughter - Numbers - таба, видео

Печатать
Просмотров: 175
-------------------------------------------------------------------------------
                             Numbers - Daughter
-------------------------------------------------------------------------------
Tabbed by: DarrenBGuitar
E-mail: Darrenbelkmusic@gmail.com
Tuning: Standard

This song is from their new album 'Doing the Right Thing'.


INTRO/VERSE -
e|---------------------------------------------------------------------------|
B|---------------------------------------------------------------------------|
G|---------------------------------------------------------------------------|
D|--9/11\7/9----9/11/14\\11--------------------------------------------------|
A|---------------------------------------------------------------------------|
E|---------------------------------------------------------------------------|

CHORUS -
e|---------------------------------------------------------------------------|
B|---------------------------------------------------------------------------|
G|---------------------------------------------------------------------------|
D|--9/11\7/9----9/11/14\\11--------------------------------------------------|
A|---------------------------------------------------------------------------|
E|---------------------------------------------------------------------------|

VERSE - 
e|---------------------------------------------------------------------------|
B|--12-------14--------12 x4-------------------------------------------------|
G|----14 x8----13 x4-----11--------------------------------------------------|
D|---------------------------------------------------------------------------|
A|---------------------------------------------------------------------------|
E|---------------------------------------------------------------------------|

CHORUS - Pluck or strum said pattern 
e|---------------------------------------------------------------------------|
B|--12-------14--------12 x4-------------------------------------------------|
G|----14 x8----13 x4-----11--------------------------------------------------|
D|---------------------------------------------------------------------------|
A|---------------------------------------------------------------------------|
E|---------------------------------------------------------------------------|

BRIDGE - Repeat until end of bridge
e|--14------9----------------------------------------------------------------|
B|--14------9----------------------------------------------------------------|
G|--14 x12--9 x4-------------------------------------------------------------|
D|---------------------------------------------------------------------------|
A|---------------------------------------------------------------------------|
E|---------------------------------------------------------------------------|

CHORUS -
e|---------------------------------------------------------------------------|
B|---------------------------------------------------------------------------|
G|---------------------------------------------------------------------------|
D|--9/11\7/9----9/11/14\\11--------------------------------------------------|
A|---------------------------------------------------------------------------|
E|---------------------------------------------------------------------------|

OUTRO -
e|---------------------------------------------------------------------------|
B|---------------------------------------------------------------------------|
G|---------------------------------------------------------------------------|
D|--16\11--11\9--------------------------------------------------------------|
A|---------------------------------------------------------------------------|
E|---------------------------------------------------------------------------|



************************************

| /   slide up
| \   slide down
| h   hammer-on
| p   pull-off
| ~   vibrato
| +   harmonic
| x   Mute note
| b   Bend
| pb  Pre-bend
| br  Bend release
| pbr Pre-bend release
| brb Bend release bend

************************************
Добавлено: 13.03.2016
Другие материалы по этой песне:
  • Аккорды и текст

Страница создана 13.03.2016
http://primanota.ru/daughter/numbers-chords.htm
Привет, Гость.
Предлагаем пройти революционный курс по гитаре.
Подарок от PrimaNota.Ru, забирай!