PrimaNota.ru - самый крупный в мире бесплатный архив песенных текстов, аккордов, табулатур и нот


Datsuns - Your Bones - таба, видео

Регистрация Запомнить меня
Войти через:  Facebook Google Twitter Vk Yandex Mail.ru

Datsuns - Your Bones - таба, видео

Печатать
Просмотров: 104
Уроки эстрадного вокала в Санкт-Петербурге
Авторы музыки: The Datsuns
Авторы текста: The Datsuns
INTRO

E|-----------------------------------------------------------------|
B|------3-3-3---------3-5----------------3-3-3--------3-5----------|
G|------2-2-2-----2/4-----2-1-2-4--------2-2-2----2/4-----2-1-2----|
D|-2-2--0-0-0-2---------------------2-2--0-0-0-2----------------2v-|
A|-2-2--------2---------------------2-2--------2-------------------|
E|-0-0--------0---------------------0-0--------0-------------------|

E|-----------------------------------------------------------------|
B|------3-3-3---------3-5----------------3-3-3--------3-5----------|
G|------2-2-2-----2/4-----2-1-2-4--------2-2-2----2/4-----2-1-2----|
D|-2-2--0-0-0-2---------------------2-2--0-0-0-2----------------2v-|
A|-2-2--------2---------------------2-2--------2-------------------|
E|-0-0--------0---------------------0-0--------0-------------------|


VERSE



E|-----------------------------------------------------------------|
B|------3-3-3---------3-5----------------3-3-3--------3-5----------|
G|------2-2-2-----2/4-----2-1-2-4--------2-2-2----2/4-----2-1-2----|
D|-2-2--0-0-0-2---------------------2-2--0-0-0-2----------------2v-|
A|-2-2--------2---------------------2-2--------2-------------------|
E|-0-0--------0---------------------0-0--------0-------------------|

E|----------------------------------------------------------|
B|------7-7-7----------------------3-3-3-------2-5-3-2-3/5v-|
G|------7-7-7------6---------------2-2-2-----4--------------|
D|-7-7--7-7-7-7------5--------2-2--0-0-0-2------------------|
A|-7-7--5-5-5-7--------4------2-2--------2------------------|
E|-5-5--------5----------3----0-0--------0------------------|


E|-------------------------------------------------------------|
B|-------5-4-------------5-4-5-7v--------5-4-----------5-4-5-7-|
G|-4-4-------4-2---4-4--------------4-4------4-2--4-4----------|
D|-4-4-------------4-4--------------4-4-----------4-4----------|
A|-2-2-------------2-2--------------2-2-----------2-2----------|
E|-------------------------------------------------------------|



CHORUS

E|----0--0--0---2-2-2---0-0-0--------0--0---2-2-2---0-0-0-|
B|----0--0--0---3-3-3---2-2-2--------0--0---3-3-3---2-2-2-|
G|----1--1--1---2-2-2---2-2-2--------1--1---2-2-2---2-2-2-|
D|-2-----2--2---0-0-0---2-2-2-----2-----2---0-0-0---2-2-2-|
A|-2-----2--2-----------0-0-0-----2-----2-----------0-0-0-|
E|-0-----0--0---------------------0-----0-----------------|

E|----0--0---2-2-2--0-0-0------------------------------------|
B|----0--0---3-3-3--2-2-2----4-4-4-4-4-4-4-4-4-4---5--4------|
G|----1--1---2-2-2--2-2-2----4-4-4-4-4-4-4-4-4-4--------4--2-|
D|-2-----2---0-0-0--2-2-2----4-4-4-4-4-4-4-4-4-4-------------|
A|-2-----2----------0-0-0----2-2-2-2-2-2-2-2-2-2-------------|
E|-0-----0---------------------------------------------------|



VERSE


CHORUS


SOLO

E|-9-9-9-9---9-9-9-9-9---9-9-9-9-9-9-9-9-9-9-9-9-|
B|-8-8-8-8---8-8-8-8-8---8-8-8-8-8-8-8-8-8-8-8-8-|
G|-9-9-9-9---9-9-9-9-9---9-9-9-9-9-9-9-9-9-9-9-9-|
D|-----------------------------------------------|
A|-----------------------------------------------|
E|-----------------------------------------------|


E|-10/12--12-10----10--------------------------|
B|--------------12----12-10-12-10--------------|
G|---------------------------------12-13-9-7-9-|
D|---------------------------------------------|
A|---------------------------------------------|
E|---------------------------------------------|

E|-9-9-9-9---9-9-9-9-9---9-9-9-9-9-9-9-9-9-9-9-9-|
B|-8-8-8-8---8-8-8-8-8---8-8-8-8-8-8-8-8-8-8-8-8-|
G|-9-9-9-9---9-9-9-9-9---9-9-9-9-9-9-9-9-9-9-9-9-|
D|-----------------------------------------------|
A|-----------------------------------------------|
E|-----------------------------------------------|

E|---17b19-17b19-17-14----------------17----------|
B|---------------------17-15-17-17b19----17-15----|
G|---------------------------------------------16-|
D|------------------------------------------------|
A|------------------------------------------------|




CHORUS

E|----0--0-0---2-2-2---0-0-0------0--0-0---3-3-3---5-5-5-|
B|----0--0-0---3-3-3---2-2-2------0--0-0---3-3-3---5-5-5-|
G|----1--1-1---2-2-2---2-2-2------1--1-1---4-4-4---6-6-6-|
D|-2-----2-2---0-0-0---2-2-2---2-----2-2---5-5-5---7-7-7-|
A|-2-----2-2-------0---0-0-0---2-----2-2---5-5-5---7-7-7-|
E|-0-----0-0-------------------0-----0-0---3-3-3---5-5-5-|


E|----0--0---2-2-2--0-0-0------------------------------------|
B|----0--0---3-3-3--2-2-2----4-4-4-4-4-4-4-4-4-4---5--4------|
G|----1--1---2-2-2--2-2-2----4-4-4-4-4-4-4-4-4-4--------4--2-|
D|-2-----2---0-0-0--2-2-2----4-4-4-4-4-4-4-4-4-4-------------|
A|-2-----2----------0-0-0----2-2-2-2-2-2-2-2-2-2-------------|
E|-0-----0---------------------------------------------------|

E|----0--0-0---2-2-2---0-0-0------0--0-0---3-3-3---5-5-5-|
B|----0--0-0---3-3-3---2-2-2------0--0-0---3-3-3---5-5-5-|
G|----1--1-1---2-2-2---2-2-2------1--1-1---4-4-4---6-6-6-|
D|-2-----2-2---0-0-0---2-2-2---2-----2-2---5-5-5---7-7-7-|
A|-2-----2-2-------0---0-0-0---2-----2-2---5-5-5---7-7-7-|
E|-0-----0-0-------------------0-----0-0---3-3-3---5-5-5-|


E|----0--0---2-2-2--0-0-0------------------------------------|
B|----0--0---3-3-3--2-2-2----4-4-4-4-4-4-4-4-4-4---5--4------|
G|----1--1---2-2-2--2-2-2----4-4-4-4-4-4-4-4-4-4--------4--2-|
D|-2-----2---0-0-0--2-2-2----4-4-4-4-4-4-4-4-4-4-------------|
A|-2-----2----------0-0-0----2-2-2-2-2-2-2-2-2-2-------------|
E|-0-----0---------------------------------------------------|




OUTRO   (same as INTRO)


I hope you enjoyed the tab, don't forget to rate it !
Добавлено: 06.06.2013
Другие материалы по этой песне:
  • Аккорды и текст

Страница создана 06.06.2013
http://primanota.ru/datsuns/your-bones-chords.htm
Привет, Гость.
Предлагаем пройти революционный курс по гитаре.
Подарок от PrimaNota.Ru, забирай!